Song name
# A B C D E F G H I J K L M N O P Q R S T U V W X Y Z

Owen - Im Not Seventeen tab

Song:	I'm Not Seventeen
Artist:	Owen
Album:	The Association of Utopian Hologram Swallowers
Tuning:	DADF#AD
Capo:	2nd fret
Tabbed: andrewgioia [at] gmail [dot] com

------
Intro:
------

D |-----------------------------|
A |-----------------------------|
F#|--3----------0------------0--|
D |--|-0-----5---0---2-s4-------|
A |--|---0---|-------|---0-0----|
D |--4-------5-------0----0-----|

------
VERSE:
------

D |---------------------------------------------------------------------|
A |---------------------------------------------------------------------|
F#|--3----------0---------------------------3------------0---------0----|
D |--|-0-----5-------------2--s4------------|-0----5---------2--s4------|
A |--|---0---|-------------|----------------|---0--|---------|----------|
D |--4-------5-------------0----------------4------5---------0----------|

         Hey cheekbones and eyes, I've been gone 3 weeks now I'm a mess.


D |---------------------------------------------------------------------|
A |---------------------------------------------------------------------|
F#|--3----------0-----------------0------------------------3------------|
D |--|-0-----5-------2---------s4-------4--h2-p0-----------0------------|
A |--|---0---|-------|------------------|---------0--------0------------|
D |--4-------5-------0------------------4------------------5------------|

                  My stomach's on strike and it's been     3 weeks ...
    since my last breath.

-------
BRIDGE:
-------

D |---------------------------------------------------------------------|
A |---------------------------------------------------------------------|
F#|--3---0------0--------------0--------3---0-----0---------0-----------|
D |--|-0-----5---0---2-s4---------------|-0----5-----2-s4---------------|
A |--|-------|-------|---0---0---0------|------|-----0----0-------------|
D |--4-------5-------0-----0-------0----4------5-----0---------0--------|


D |---------------------------------------------------------------------|
A |---------------------------------------------------------------------|
F#|--3---0------0--------0-------------------5--5-5-5-5---5-------------|
D |--0-0-----5------2-s4----4--h2-p0--------0---0-0-0-0---0-------------|
A |--0-------|------|-------|--------0-----0----0---0-----0-------------|
D |--4-------5------0-------4-------------5-------------5-5-------------|
                                                v ^ v ^   v
                                                            Well I don't


D |---------------------------------------------------------------------|
A |---------------------------------------------------------------------|
F#|-----7--7-7-7-7---7-----------------3--3-3-3-3---3-------------------|
D |----0---0-0-0-0---0----------------0---0-0-0-0---0-------------------|
A |---0----0---0-----0---------------0----0---0-----0-------------------|
D |--7-------------7-7--------------5-------------5-5-------------------|
           v ^ v ^   v                    v ^ v ^   v
       know   why       I'm here                     'cause I'm not


D |---------------------------------------------------------------------|
A |---------------------------------------------------------------------|
F#|-----0--0-0-0-0---0--(0)(0)(0)------5--5-5-5-5---5-------------------|
D |----4---4-4-4-4---4--(4)(4)(4)-----0---0-0-0-0---0-------------------|
A |---5----5---5-----5--(5)----------0----0---0-----0-------------------|
D |--7-------------7-7--(7)---------5-------------5-5-------------------|
           v ^ v ^   v   v  v  ^          v ^ v ^   v
                   in need                            of attention


D |---------------------------------------------------------------------|
A |---------------------------------------------------------------------|
F#|-----7--7-7-7-7---7-----------------3--1-1-1-1---0--(0)(0)(0)(0)(0)--|
D |----0---0-0-0-0---0----------------0---0-0-0-0---0--(0)(0)(0)(0)(0)--|
A |---0----0---0-----0---------------0----0---0-----0--------(0)--------|
D |--7-------------7-7--------------0-------------0-0--------(0)--------|
           v ^ v ^   v                    v ^ v ^   v   v  ^  v  v  ^
                    and I'm not                   seventeen


D |---------------------------------------------------------------------|
A |---------------------------------------------------------------------|
F#|-----5--5-5-5-5---5-----------------3--3-3-3-3---3-------------------|
D |----0---0-0-0-0---0----------------0---0-0-0-0---0-------------------|
A |---0----0---0-----0---------------5----5---5-----5-------------------|
D |--5-------------5-5--------------2-------------2-2-------------------|
           v ^ v ^   v                    v ^ v ^   v
                   and I don't be-  lieve             in that


D |---------------------------|
A |---------------------------|
F#|-----7---------------------|
D |----0----------------------|
A |---0-----------------------|
D |--7------------------------|

          which I can't see.


--------
PICKING:
--------

D |---------------------------------------------------------------------|
A |------------0--------------------------------------------------------|
F#|----------0--------------------------------3p0---------0-------------|
D |--4h5p4p0------5-4p0----2-s4-0--------0------------0-----------------|
A |--|------------|-------------------------------------0---------------|
D |--4------------5---------0----------4----5-----p0--------------------|

D |-------------------------------7---5---4---4h5p4p0------------0------|
A |-------7h9p7p0---4-5------------------------------0-----5------------|
F#|-----------------|-------0-----------------------------5---3s5--5-3--|
D |--0--------------|----0h2--------0--------------------0--------0-----|
A |--0--------------|-----------------------------------0---------------|
D |--4--------------5-----------7-------0--------------5----------------|


------
VERSE:
------

D |---------------------------------------------------------------------|
A |---------------------------------------------------------------------|
F#|---------0-----------------------3---------------0----------------0--|
D |-------------2-s4----------------|-0----------5----0--------2---s4---|
A |-------------0-------------------|---0--------|-------------|-0------|
D |--4---5------0-------------------4------------5-------------0--------|

          And I swear, if I make it home with my mind and some skin ...
    on these bones.

D |---------------------------------------------------------------------|
A |------------------------------0--------------------------------------|
F#|--3---0-----0------------------------------------5-----------7-------|
D |--|-0-----5------------2-s4---------4-h2p4------0-----------0--------|
A |--|-------|------------|----0-------|-----0----0-----------0---------|
D |--4-------5------------0------------4---------5-----------7----------|

              I'll be the first one to throw a-  way   these car keys,


D |---------------------------------------------------------------------|
A |---------------------------------------------------------------------|
F#|-------------3----------------------0--------------------5-----------|
D |------------0----------------------4--------------------0------------|
A |-----------0----------------------5--------------------0-------------|
D |----------5----------------------7--------------------5--------------|

    and this cell phone, so I can't leave or talk to any-one,


D |---------------------------------------------------------------------|
A |---------------------------------------------------------------------|
F#|----------------7---------------------------3-------------------3----|
D |---------------0-----------------------4-5p4-------------5-4p0-------|
A |--------------0----------------------0-----------------0-------------|
D |-------------7---------------------0--------------5------------------|

    and this stupid wristwatch so I'm unaware of the time that I've lost


D |-----------------------------------------------------------------0---|
A |---------------------------------------------------------------------|
F#|--------------3------------------------3-----------------------------|
D |------4--5p4------------4---5p4p0------|-0-----5-4---7---0---5-4-----|
A |----0-----------------0----------------|---0---|-----|-0-----|-------|
D |--2----------------5-------------------4-------5-----7-------0-------|

           trying to  be     that which   I'm not.


D |---------------------------0--------------------------------0--------|
A |---------------------------------------------------------------------|
F#|--3--------------------------------3---------------------------------|
D |--|-0----5-4---7---0---5-4---------|-0----5-4---7---0---5-4----------|
A |--|---0--|-----|-0-----|-----------|---0--|-----|-0-----|------------|
D |--4------5-----7-------0-----------4------5-----7-------0------------|


D |-------------------------|
A |-------------------------|
F#|--3--------------0-------|
D |--|-0----5-4-----0-------|
A |--|---0--|---0---0-------|
D |--4------5-------0-------|
Tap to rate this tab
# A B C D E F G H I J K L M N O P Q R S T U V W X Y Z