Song name
# A B C D E F G H I J K L M N O P Q R S T U V W X Y Z

Owen - Ugly On The Inside tab

Artist: Owen
Song: Ugly On the Inside
Album: New Leaves
Tabbed by: Don Tago
Email: recebedou@yahoo.com



Standard Tuning [Capo IV]


Intro/Verse tab:
e|----------------------------------------------------------------|
B|------3---1-----------1-1-----1-1--------------------5-5--------|
G|----0---0-----0------0-------0-------------5--------5----5------|
D|------------2-------2-------2-----------5------5---5-------5----|
A|-3-----------------3------------------0---0--0------------------|
E|-----------------0--------3-------3/5------------5--------------|

e|-------0--------------------------------------------------------|
B|---1h3---3-1---------1-1-----1-1--------------------------------|
G|-------------0------0-------0--------------5--------------5-----|
D|-------------------2-------2-----------5-------5------5-------5-|
A|-3----------------3------------------0---0---0------0---0---0---|
E|----------------0--------3-------3/5--------------5-------------|


Post-verse tab:
e|---------------------------|
B|---------1-----------1-----|
G|-------0---0-------0---0---|
D|-----2-----------2---------|
A|--3------------------------|
E|--------------3------------|


Solo 1: [played during intro/verse tab]
e|----------------0-------------3----------------------------------|
B|------------------0-1--------------------------------------------|
G|----------0-----------0------------------------------------------|
D|--2-0-2-3-----------------3-3----3-2-----0h2-0-------------------|
A|-------------3----------------------------------2-3--------------|
E|-----------------------------------------------------5--3--1--0--|

=============================================================

:Song Structure

Intro: [Intro/Verse tab x1]


Verse 1: [Intro/Verse tab]
The lightening in this room 
Doesnt do a thing for you and your complexion
Im sorry but its the truth
You look like the goddamn living dead 


Post-verse 1: [post-verse tab]
But honestly I dont care
How you do or dont your hair
Youre ugly on the inside


Solo 1: [Solo tab w/ intro/verse tab]


Verse 2: [Intro/Verse tab]
The makeup that you use to catch some eyes 
And hide your imperfections
Does little to conceal 
An ego thats been bruised many times 
But youve left it at home with your underwear


Post-verse 2: [post-verse tab]
But honestly I dont mind
Who you do or dont today
Youre still ugly on the inside


Outro: [Intro/verse tab w/ some variation]
Youve got time to change
Now go ahead and drink those drinks drunk again
Someone will drive you home
Tap to rate this tab
# A B C D E F G H I J K L M N O P Q R S T U V W X Y Z