Song name
# A B C D E F G H I J K L M N O P Q R S T U V W X Y Z

Owen - In The Morning Before Work tab

Song:	In the Morning, Before Work
Artist:	Owen
Album:	(the ep)
Tuning:	DADGCE
Capo:	5th fret
Tabbed: andrewgioia [at] gmail [dot] com

------
Intro:
------

E |-------0-----------------------0---0-------0---0---------------------|
C |-------------------------------0---0-------0---0---------------------|
G |---------0-----0-------------0-0-x-0-----0-0-x-0---------------------|
D |---0h2--0---0h2--0-----------2-2-x-2-----2-2-x-2---------------------|
A |------3-------------2p0------3-3-x-3-----3-3-x-3---------------------|
D |---------------------------3-3-3-x-3---3-3-3-x-3---------------------| x2
                                v ^ v ^     v ^ v ^
			     (this is the strum pattern; he mutes the Xs)

--------
VERSE: 1
--------

E |------0---0---------------------0---0-------0---0--------------------|
C |--0---0-0-0---------------------0---0-------0---0--------------------|
G |--0---0-0-0------0------------0-0-x-0-----0-0-x-0--------------------|
D |--2---2-2-2---0h2--0----------2-2-x-2-----2-2-x-2--------------------|
A |--3---3-3-3-----------2p0-----3-3-x-3-----3-3-x-3--------------------|
D |----------------------------3-3-3-x-3---3-3-3-x-3--------------------|
     v   ^ v ^                   v ^ v ^     v ^ v ^
	   I eat with these                  crooked

E |--------------------------------0---0-------0---0--------------------|
C |--------------------------------0---0-------0---0--------------------|
G |--0---0-0-0------0------------0-0-x-0-----0-0-x-0--------------------|
D |--x---x-x-x---0h2--0----------2-2-x-2-----2-2-x-2--------------------|
A |--7---7-7-7-----------2p0-----3-3-x-3-----3-3-x-3--------------------|
D |--7---7-7-7-----------------3-3-3-x-3---3-3-3-x-3--------------------|
     v   ^ v ^                   v ^ v ^     v ^ v ^
         teeth

E |-------0-----------------------0---0-------0---0---------------------|
C |-------------------------------0---0-------0---0---------------------|
G |---------0-----0-------------0-0-x-0-----0-0-x-0---------------------|
D |---0h2--0---0h2--0-----------2-2-x-2-----2-2-x-2---------------------|
A |------3-------------2p0------3-3-x-3-----3-3-x-3---------------------|
D |---------------------------3-3-3-x-3---3-3-3-x-3---------------------|
                                v ^ v ^     v ^ v ^
               tomato soup and                    grilled

E |--------------------------------0---0-------0---0--------------------|
C |--------------------------------0---0-------0---0--------------------|
G |--0---0-0-0------0------------0-0-x-0-----0-0-x-0--------------------|
D |--x---x-x-x---0h2--0----------2-2-x-2-----2-2-x-2--------------------|
A |--7---7-7-7-----------2p0-----3-3-x-3-----3-3-x-3--------------------|
D |--7---7-7-7-----------------3-3-3-x-3---3-3-3-x-3--------------------|
     v   ^ v ^                   v ^ v ^     v ^ v ^
           cheese                          but you already

E |---------------------------------------------------0---0------0---0--|
C |--------------------------0-0-x-0----0-0-x-0-------0---0------0---0--|
G |---0-0-x-0----0-0-x-0-----0-0-x-0----0-0-x-0-----0-0-x-0----0-0-x-0--|
D |---2-2-x-2----2-2-x-2-----0-0-x-0----0-0-x-0-----2-2-x-2----2-2-x-2--|
A |---0-0-x-0----0-0-x-0-----2-2-x-2----2-2-x-2-----3-3-x-3----3-3-x-3--|
D |-0-0-0-x-0--0-0-0-x-0---2-2-2-x-2--2-2-2-x-2---3-3-3-x-3--3-3-3-x-3--|
      v ^ v ^    v ^ v ^    v ^ v ^     v ^ v ^     v ^ v ^    v ^ v ^
    know that  'cause you  used to            dine with me.

E |---------------------------------------------------------------------|
C |---------------------------------------------------------------------|
G |----0h2p0------------------------------------------------------------|
D |------------2s3s2p0--------------------------------------------------|
A |---------------------------------------------------------------------|
D |---------------------------------------------------------------------|

               Do you remember?

E |------0---0---------------------0---0-------0---0--------------------|
C |--0---0-0-0---------------------0---0-------0---0--------------------|
G |--0---0-0-0------0------------0-0-x-0-----0-0-x-0--------------------|
D |--2---2-2-2---0h2--0----------2-2-x-2-----2-2-x-2--------------------|
A |--3---3-3-3-----------2p0-----3-3-x-3-----3-3-x-3--------------------|
D |----------------------------3-3-3-x-3---3-3-3-x-3--------------------| x2
     v   ^ v ^                   v ^ v ^     v ^ v ^


--------
VERSE 2:
--------

E |------0---0---------------------0---0-------0---0--------------------|
C |--0---0-0-0---------------------0---0-------0---0--------------------|
G |--0---0-0-0------0------------0-0-x-0-----0-0-x-0--------------------|
D |--2---2-2-2---0h2--0----------2-2-x-2-----2-2-x-2--------------------|
A |--3---3-3-3-----------2p0-----3-3-x-3-----3-3-x-3--------------------|
D |----------------------------3-3-3-x-3---3-3-3-x-3--------------------|
     v   ^ v ^                   v ^ v ^     v ^ v ^
	   I listen to my                    same old

E |--------------------------------0---0-------0---0--------------------|
C |--------------------------------0---0-------0---0--------------------|
G |--0---0-0-0------0------------0-0-x-0-----0-0-x-0--------------------|
D |--x---x-x-x---0h2--0----------2-2-x-2-----2-2-x-2--------------------|
A |--7---7-7-7-----------2p0-----3-3-x-3-----3-3-x-3--------------------|
D |--7---7-7-7-----------------3-3-3-x-3---3-3-3-x-3--------------------|
     v   ^ v ^                   v ^ v ^     v ^ v ^
     CDs    

E |------0---0---------------------0---0-------0---0--------------------|
C |--0---0-0-0---------------------0---0-------0---0--------------------|
G |--0---0-0-0------0------------0-0-x-0-----0-0-x-0--------------------|
D |--2---2-2-2---0h2--0----------2-2-x-2-----2-2-x-2--------------------|
A |--3---3-3-3-----------2p0-----3-3-x-3-----3-3-x-3--------------------|
D |----------------------------3-3-3-x-3---3-3-3-x-3--------------------|
     v   ^ v ^                   v ^ v ^     v ^ v ^
	                    New Order      and

E |--------------------------------0---0-------0---0--------------------|
C |--------------------------------0---0-------0---0--------------------|
G |--0---0-0-0------0------------0-0-x-0-----0-0-x-0--------------------|
D |--x---x-x-x---0h2--0----------2-2-x-2-----2-2-x-2--------------------|
A |--7---7-7-7-----------2p0-----3-3-x-3-----3-3-x-3--------------------|
D |--7---7-7-7-----------------3-3-3-x-3---3-3-3-x-3--------------------|
     v   ^ v ^                   v ^ v ^     v ^ v ^
     Morrissey                             but you already 

E |---------------------------------------------------0---0------0---0--|
C |--------------------------0-0-x-0----0-0-x-0-------0---0------0---0--|
G |---0-0-x-0----0-0-x-0-----0-0-x-0----0-0-x-0-----0-0-x-0----0-0-x-0--|
D |---2-2-x-2----2-2-x-2-----0-0-x-0----0-0-x-0-----2-2-x-2----2-2-x-2--|
A |---0-0-x-0----0-0-x-0-----2-2-x-2----2-2-x-2-----3-3-x-3----3-3-x-3--|
D |-0-0-0-x-0--0-0-0-x-0---2-2-2-x-2--2-2-2-x-2---3-3-3-x-3--3-3-3-x-3--|
      v ^ v ^    v ^ v ^    v ^ v ^     v ^ v ^     v ^ v ^    v ^ v ^
    know that  'cause you  used to            ride with me.

E |------0---0----------------------------------------------------------|
C |------0---0----------0-----------------------------------------------|
G |----0-0-x-0----0-------0---------------------------------------------|
D |----2-2-x-2------2---------------------------------------------------|
A |----3-3-x-3--------3-------------------------------------------------|
D |--3-3-3-x-3--3-------------------------------------------------------|


-------
CHORUS:
-------

(Note: parentheticals are just basic chord approximations)

    (F)                           (C)
E |-------0---0---------0---0-----------0---0---------0---0-------------|
C |--0--0-0-x-0----0--0-0-x-0------0--0-0-x-0----0--0-0-x-0-------------|
G |--0--0-0-x-0----0--0-0-x-0------0--0-0-x-0----0--0-0-x-0-------------|
D |--2--2-2-x-2----2--2-2-x-2------0--0-0-x-0----0--0-0-x-0-------------|
A |--3--3-3-x-3----3--3-3-x-3------5--5-5-x-5----5--5-5-x-5-------------|
D |--------------------------------5--5-5-x-5----5--5-5-x-5-------------|
     v  v ^ v ^    v  v ^ v ^      v  v ^ v ^    v  v ^ v ^
                 I thought I'd be  singin'          a different

    (Bb)                          (G)                    (A)
E |-------0---0---------0---0-----------0---0---------0-----0-----------|
C |--0--0-0-x-0----0--0-0-x-0------0--0-0-x-0----0--0-0-----0-----------|
G |--0--0-0-x-0----0--0-0-x-0------0--0-0-x-0----0--0-0---0-0-----------|
D |--2--2-2-x-2----2--2-2-x-2------2--2-2-x-2----2--2-2---0-0-----------|
A |--3--3-3-x-3----3--3-3-x-3------0--0-0-x-0----0--0-0---2-2-----------|
D |--3--3-3-x-3----3--3-3-x-3------0--0-0-x-0----0--0-0---2-2-----------|
     v  v ^ v ^    v  v ^ v ^      v  v ^ v ^    v  v ^   v ^
        tune            by         now,

    (Bb)                          (C)
E |-------0---0---------0---0-----------0---0---------0---0-------------|
C |--0--0-0-x-0----0--0-0-x-0------0--0-0-x-0----0--0-0-x-0-------------|
G |--0--0-0-x-0----0--0-0-x-0------0--0-0-x-0----0--0-0-x-0-------------|
D |--2--2-2-x-2----2--2-2-x-2------0--0-0-x-0----0--0-0-x-0-------------|
A |--3--3-3-x-3----3--3-3-x-3------5--5-5-x-5----5--5-5-x-5-------------|
D |--3--3-3-x-3----3--3-3-x-3------5--5-5-x-5----5--5-5-x-5-------------|
     v  v ^ v ^    v  v ^ v ^      v  v ^ v ^    v  v ^ v ^
          but the  songs about     you           keep comin'


E |------0---0---------------------0---0-------0---0--------------------|
C |--0---0-0-0---------------------0---0-------0---0--------------------|
G |--0---0-0-0------0------------0-0-x-0-----0-0-x-0--------------------|
D |--2---2-2-2---0h2--0----------2-2-x-2-----2-2-x-2--------------------|
A |--3---3-3-3-----------2p0-----3-3-x-3-----3-3-x-3--------------------|
D |----------------------------3-3-3-x-3---3-3-3-x-3--------------------| x2
     v   ^ v ^                   v ^ v ^     v ^ v ^
     out.


--------
VERSE 3:
--------

E |-------0-----------------------0---0-------0---0---------------------|
C |-------------------------------0---0-------0---0---------------------|
G |---------0-----0-------------0-0-x-0-----0-0-x-0---------------------|
D |---0h2--0---0h2--0-----------2-2-x-2-----2-2-x-2---------------------|
A |------3-------------2p0------3-3-x-3-----3-3-x-3---------------------|
D |---------------------------3-3-3-x-3---3-3-3-x-3---------------------|
                                v ^ v ^     v ^ v ^
           I sleep in these                   dirty

E |--------------------------------0---0-------0---0--------------------|
C |--------------------------------0---0-------0---0--------------------|
G |--0---0-0-0------0------------0-0-x-0-----0-0-x-0--------------------|
D |--x---x-x-x---0h2--0----------2-2-x-2-----2-2-x-2--------------------|
A |--7---7-7-7-----------2p0-----3-3-x-3-----3-3-x-3--------------------|
D |--7---7-7-7-----------------3-3-3-x-3---3-3-3-x-3--------------------|
     v   ^ v ^                   v ^ v ^     v ^ v ^
         sheets,

E |------0---0---------------------0---0-------0---0--------------------|
C |--0---0-0-0---------------------0---0-------0---0--------------------|
G |--0---0-0-0------0------------0-0-x-0-----0-0-x-0--------------------|
D |--2---2-2-2---0h2--0----------2-2-x-2-----2-2-x-2--------------------|
A |--3---3-3-3-----------2p0-----3-3-x-3-----3-3-x-3--------------------|
D |----------------------------3-3-3-x-3---3-3-3-x-3--------------------|
     v   ^ v ^                   v ^ v ^     v ^ v ^
               a blanket be-   tween my        bo-

E |--------------------------------0---0-------0---0--------------------|
C |--------------------------------0---0-------0---0--------------------|
G |--0---0-0-0------0------------0-0-x-0-----0-0-x-0--------------------|
D |--x---x-x-x---0h2--0----------2-2-x-2-----2-2-x-2--------------------|
A |--7---7-7-7-----------2p0-----3-3-x-3-----3-3-x-3--------------------|
D |--7---7-7-7-----------------3-3-3-x-3---3-3-3-x-3--------------------|
     v   ^ v ^                   v ^ v ^     v ^ v ^
     -ny knees                         but you already

E |---------------------------------------------------0---0------0---0--|
C |--------------------------0-0-x-0----0-0-x-0-------0---0------0---0--|
G |---0-0-x-0----0-0-x-0-----0-0-x-0----0-0-x-0---0-0-0-x-0----0-0-x-0--|
D |---2-2-x-2----2-2-x-2-----0-0-x-0----0-0-x-0---2-2-2-x-2----2-2-x-2--|
A |---0-0-x-0----0-0-x-0-----2-2-x-2----2-2-x-2---3-3-3-x-3----3-3-x-3--|
D |-0-0-0-x-0--0-0-0-x-0---2-2-2-x-2--2-2-2-x-2---3-3-3-x-3--3-3-3-x-3--|
      v ^ v ^    v ^ v ^    v ^ v ^     v ^ v ^     v ^ v ^    v ^ v ^
    know that  'cause you  used to      crawl in  bed   with me      

E |------------0-0-0-0-0-0-0-0-0-0-0-0----------------------------------|
C |------------0-0-0-0-0-0-0-0-0-0-0-0----------------------------------|
G |--x-x-x-----0-0-0-0-0-0-0-0-0-0-0-0----------------------------------|
D |--x-x-x-----5-5-5-5-5-5-5-5-5-5-5-5----------------------------------|
A |--x-x-x-----5-5-5-5-5-5-5-5-5-5-5-5----------------------------------|
D |--x-x-x-----5-5-5-5-5-5-5-5-5-5-5-5----------------------------------|
     v v ^     v ^ v ^ v ^ v ^ v ^ v ^
       in the morning, before work.


-------
BRIDGE:
-------

E |----------------------0---------------------------0------------------|
C |--------0---------------------------0--------------------------------|
G |------5-------------5----5--------5-------------5------5-------------|
D |----7-------7-----7-------------7-------7-----7----------------------|
A |---------------------------------------------------------------------|
D |--7-------7-----7------7------6-------6-----6--------6---------------|

          Put your hands on my   back,

E |----------------------0----------------------------------------------|
C |--------0---------------------------0--------------4h5p4p0-----------|
G |------5-------------5----5--------5-------------5----------0---------|
D |----5-------5-----5-------------5-------5-----5----------------------|
A |---------------------------------------------------------------------|
D |--5-------5-----5------5------4-------4-----4------------------------|

             kiss the back of my neck

E |-------0----0---0---------------------0------------------------------|
C |------0---0-0-x-0------4h2p0---------0-----0-0-0-0-0-0-0-------------|
G |-----2----2-2-x-2------------0------4------4-4-4-4-4-4-4-------------|
D |----0-----0-0-x-0------------------0-------0-0-0-0-0-0-0-------------|
A |---3------3-3-x-3-----------------5--------5-5-5-5-5-5-5-------------|
D |--3-------3-3-x-3--3-------------5---------5-5-5-5-5-5-5-------------|
     v       v ^ v ^                v         v v v v v v v


-------
CHORUS:
-------

    (F)                           (C)
E |-------0---0---------0---0-----------0---0---------0---0-------------|
C |--0--0-0-x-0----0--0-0-x-0------0--0-0-x-0----0--0-0-x-0-------------|
G |--0--0-0-x-0----0--0-0-x-0------0--0-0-x-0----0--0-0-x-0-------------|
D |--2--2-2-x-2----2--2-2-x-2------0--0-0-x-0----0--0-0-x-0-------------|
A |--3--3-3-x-3----3--3-3-x-3------5--5-5-x-5----5--5-5-x-5-------------|
D |--------------------------------5--5-5-x-5----5--5-5-x-5-------------|
     v  v ^ v ^    v  v ^ v ^      v  v ^ v ^    v  v ^ v ^
                 I thought I'd be  singin'          a different

    (Bb)                          (G)                    (A)
E |-------0---0---------0---0-----------0---0---------0-----0-----------|
C |--0--0-0-x-0----0--0-0-x-0------0--0-0-x-0----0--0-0-----0-----------|
G |--0--0-0-x-0----0--0-0-x-0------0--0-0-x-0----0--0-0---0-0-----------|
D |--2--2-2-x-2----2--2-2-x-2------2--2-2-x-2----2--2-2---0-0-----------|
A |--3--3-3-x-3----3--3-3-x-3------0--0-0-x-0----0--0-0---2-2-----------|
D |--3--3-3-x-3----3--3-3-x-3------0--0-0-x-0----0--0-0---2-2-----------|
     v  v ^ v ^    v  v ^ v ^      v  v ^ v ^    v  v ^   v ^
        tune            by         now,

    (Bb)                          (C)
E |-------0---0---------0---0-----------0---0---------0---0-------------|
C |--0--0-0-x-0----0--0-0-x-0------0--0-0-x-0----0--0-0-x-0-------------|
G |--0--0-0-x-0----0--0-0-x-0------0--0-0-x-0----0--0-0-x-0-------------|
D |--2--2-2-x-2----2--2-2-x-2------0--0-0-x-0----0--0-0-x-0-------------|
A |--3--3-3-x-3----3--3-3-x-3------5--5-5-x-5----5--5-5-x-5-------------|
D |--3--3-3-x-3----3--3-3-x-3------5--5-5-x-5----5--5-5-x-5-------------|
     v  v ^ v ^    v  v ^ v ^      v  v ^ v ^    v  v ^ v ^
          but the  songs about     you           keep comin'


    (F)                           (C)
E |-------0---0---------0---0-----------0---0---------0---0-------------|
C |--0--0-0-x-0----0--0-0-x-0------0--0-0-x-0----0--0-0-x-0-------------|
G |--0--0-0-x-0----0--0-0-x-0------0--0-0-x-0----0--0-0-x-0-------------|
D |--2--2-2-x-2----2--2-2-x-2------0--0-0-x-0----0--0-0-x-0-------------|
A |--3--3-3-x-3----3--3-3-x-3------5--5-5-x-5----5--5-5-x-5-------------|
D |--------------------------------5--5-5-x-5----5--5-5-x-5-------------|
     v  v ^ v ^    v  v ^ v ^      v  v ^ v ^    v  v ^ v ^
     out.          I'd hope to be  singin'          to someone

    (Bb)                          (G)
E |-------0---0---------0---0-------------------------------------------|
C |--0--0-0-x-0----0--0-0-x-0------0------------------------------------|
G |--0--0-0-x-0----0--0-0-x-0------0------------------------------------|
D |--2--2-2-x-2----2--2-2-x-2------2------------------------------------|
A |--3--3-3-x-3----3--3-3-x-3------0-------(rest)-----------------------|
D |--3--3-3-x-3----3--3-3-x-3------0------------------------------------|
     v  v ^ v ^    v  v ^ v ^      v 
        new             by         now,

    (Bb)                          (C)
E |-------0---0---------0---0-------------------------------------------|
C |--0--0-0-x-0----0--0-0-x-0------0------------------------------------|
G |--0--0-0-x-0----0--0-0-x-0------0------------------------------------|
D |--2--2-2-x-2----2--2-2-x-2------0------------------------------------|
A |--3--3-3-x-3----3--3-3-x-3------5------------------------------------|
D |--3--3-3-x-3----3--3-3-x-3------5------------------------------------|
     v  v ^ v ^    v  v ^ v ^      v
          but this  song's about   you.
Tap to rate this tab
# A B C D E F G H I J K L M N O P Q R S T U V W X Y Z