Song name
# A B C D E F G H I J K L M N O P Q R S T U V W X Y Z

Owen - Dead Men Dont Lie tab

-------------------------------------------------------------------------------
			     DEAD MEN DON'T LIE - Owen
-------------------------------------------------------------------------------

Tuning: DADF#AD (Capo 3)

D |-4------0----7----------------0----2---0---0----------|
A |----------------------------4---4--------4---4-2-0----|
F#|----1------------0------------------------------------|
D |-------------------0-----2----------------------------|
A |-----------------------0------------0-----------------|
D |-2-----------9----------------------------------------|



D |-4--7--7-9-7--0----------0----2------0----------|
A |-4--0-----------4------4---4-------4----4-2-0---|
F#|-3--8-------------5-----------------------------|
D |-2--0-------------------------------------------|
A |-0--0----------------0----------0---------------|
D |-2--9-------------------------------------------|



D |-------------------------------------------------------------|
A |-------0------0------0------0--------4-----4-----4------4----|
F#|-----5------5------5------5--------5-----5-----5------5------|
D |--0--0---0--0----0-0----0-0-----2--0---2-0---2-0----2-0------|
A |--------------------------------0------0-----0------0--------|
D |--5------5-------5------5------------------------------------|


D |-----------------------------------|
A |-----------------------------------|
F#|-----------------------------------|
D |-----------------------------------|
A |------------------0-----0--2-4-----|
D |-5--0--5--0--2------2--------------|


D |-0--4--0---|
A |-5--0--0---|
F#|-0--0--5---|
D |-0--0--0---|
A |-0--0--0---|
D |-0--2--5---|
Tap to rate this tab
 
# A B C D E F G H I J K L M N O P Q R S T U V W X Y Z