Song name
# A B C D E F G H I J K L M N O P Q R S T U V W X Y Z

Owen - Accidentally tab

-------------------------------------------------------------------------------
			     ACCIDENTALLY - Owen
-------------------------------------------------------------------------------

Tuning: DADF#AD (Capo 3)


D |-4------0----7----------------0----2---0----------|
A |----------------------------4---4--------4-2-0----|
F#|----1------------0--------------------------------|
D |-------------------0-----2------------------------|
A |-----------------------0------------0-------------|
D |-2-----------9------------------------------------|



D |---------------------------------------|
A |----------------------------------2----|
F#|------3---------3--------3------3------|
D |----2---------2--------2------2--------|
A |--0---------0--------0------0----------|
D |0---------2--------0------2------------|



D |------------0--------------|
A |--------------4-0----------|
F#|--0------------------------|
D |----0-------------0-2-0----|
A |------4-0------------------|
D |---------------------------|
Tap to rate this tab
 
# A B C D E F G H I J K L M N O P Q R S T U V W X Y Z