Owen - Note To Self tab

Artist: Owen
Song: Note to Self: 
Album: I Do Perceive
Tuning: DADF#BC# - capo 3 (live version) capo 4 (album version) 
Tab by Joel


Intro:
C#----8---0------1------------3---0---------8---1----1-----------3---0---------------------|
B------9--------0-2-0p2----------------------9---5----2-0p2--------------------------------|
F#------10---5-----3----3/2/3---5-------------10-------3----3/2/3--5-----------------------|
D------------------------------------------------------------------------------------------|   +x
A------------------------------------------------------------------------------------------|
D--------------------------------------0----------------------------------0----------------|


Verse 1:
C#--------------------------------------------------0-----------------0----0---------------|
B-------0---------0----------0---------0---------0-0---------0--------7----5---------------|
F#-----3-3-------3-3--------3-3-------3-3-------3-3---------3-3-------7----7---------------|
D-----2---2-----2---2------4---4-----2---2-----2-----------4---4------0----6---------------|   2x
A----0---------2--------------------0---------------------------------0----0---------------|
D------------------------4-----------------0h2-----------4----------0----0-----------------|


C#-------------3----------------0----------------------------------------0-----------------|
B-------0h2h0------------------0------------0h2h0-----------------------0------------------|
F#-----3-----3--------------3--------------3-----3/2/3--------------3----------------------|
D-----2--------------------4--------------2------------------------4-----------------------|   1x
A----0--------------------4--------------0-------------0----------4------------------------|
D-------------------2----4---4------0-----------------------0----4----4------0-------------|


C#--------------------------------------------------0--------------------------------------|
B-------0---------0----------0---------0---------0-0---------0-----------------------------|
F#-----3-3-------3-3--------3-3-------3-3-------3-3---------3-3----------------------------|
D-----2---2-----2---2------4---4-----2---2-----2-----------4---4---------------------------|   1x
A----0---------2--------------------0------------------------------------------------------|
D------------------------4-----------------0h2-----------4---------------------------------|


Chorus: ("You don't like drinking alone...") 
C#-----0----0----0----0------0----0-------3--------------0---------------------------------|
B------7----5----7----5p7p5/3-0---0------------------3--0----------------------------------|
F#-----7----7----7----7-----------3---2/3--------------2-----------------------------------|
D------0----6----6----6-----------4----------------2---------------------------------------|   4x
A------0----0----0----0-----------4------------2-------------------------------------------|
D----0----0----0----0-------------4------------2-------------------------------------------|


Verse 2:
C#--------------------------------------------------0-----------------0----0---------------|
B-------0---------0----------0---------0---------0-0---------0--------7----5---------------|
F#-----3-3-------3-3--------3-3-------3-3-------3-3---------3-3-------7----7---------------|
D-----2---2-----2---2------4---4-----2---2-----2-----------4---4------0----6---------------|   3x
A----0---------2--------------------0---------------------------------0----0---------------|
D------------------------4-----------------0h2-----------4----------0----0-----------------|


Chorus: ("Oh you poor thing...")
C#-----0----0----0----0------0----0-------3--------------0---------------------------------|
B------7----5----7----5p7p5/3-0---0------------------3--0----------------------------------|
F#-----7----7----7----7-----------3---2/3--------------2-----------------------------------|
D------0----6----6----6-----------4----------------2---------------------------------------|   4x
A------0----0----0----0-----------4------------2-------------------------------------------|
D----0----0----0----0-------------4------------2-------------------------------------------|


Bridge:
C#-------5----------8---10/12/10--8-----0----------3-------5-------------------------------|
B---------5----------9--------------9-------0-----0---------5------------------------------|
F#---------3----------10-------------10------3/2/3-----------3-----------------------------|
D------------------------------------------------------------------------------------------|   2x
A---------------0--------------------------------------------------------------------------|
D----0-------------------------------------------------0-----------------------------------|


Bridge 2: ("You ain't no...")
C#-------------0------------0--------------0----------1------------------------------------|
B-------------0------------0--------------0------------2-----------------------------------|
F#--------3------------2--------------3-----------------3----------------------------------|
D--------4-4----------3-3------------4-4---------------------------------------------------|   2x
A-------4------------4--------------4------------------------------------------------------|
D----2/4------------3------------2/4------------0------------------------------------------|


Pre-outro part: 
C#-------8---10/12/10--8----0----------3p1p0-----------------------------------------------|
B---------9-------------9-------0-----0-----0----------------------------------------------|
F#---------10------------10------3/2/3-------3---------------------------------------------|
D------------------------------------------------------------------------------------------|   1x
A----0-------------------------------------------------------------------------------------|
D------------------------------------------------------------------------------------------|


Outro: ("You're a long ways away...")
C#----------0-----------0----------0-----------0(3)----------------------------------------|
B--------0-0---------0-0--------0-0---------0-0--------------------------------------------|
F#------3-3---------3-3--------3-3---------3-3---------------------------------------------|
D------2-----------2----------4-----------2------------------------------------------------|   +x
A------------------------------------------------------------------------------------------|
D----0-----------2----------4-----------2--------------------------------------------------|
Tap to rate this tab
 
# A B C D E F G H I J K L M N O P Q R S T U V W X Y Z