Song name
# A B C D E F G H I J K L M N O P Q R S T U V W X Y Z

Owen - Good Deeds tab

------------------------------------------------------------------------------
			     Owen - Good Deeds
-------------------------------------------------------------------------------
Tabbed by: ivadell
Email: sadstyle36@hotmail.com

Tuning: DADGAE

Part 1 (x3)
Who's going the right way...
e|-----------------------0--------------------------|
A|----------0-----------0-9-----------0-----0-------|
G|----7-----------7-------------7----------4-----0--|
D|--0-----0-----0-----0-------0-----0-----0-----0---|
A|---9-----9-----9-----9-------9-----9------------9-|
D|-0-----0-----0-----8-------9-----9-----5-----5----|

Part 2
...our mouth meet...
e|-----------------------------------------0------|
A|----------0-----5----0------------0-----5-5-----|
G|----7---------6-----6-0-----7----------6---6-0--|
D|--0-----0------5----------0-----0-----7-----7---|
A|---9-----9---0-----0-------9-----9---0--------9-|
D|-0-----0-----------------0-----0----------------|

Part 3
e|-----------------------0--------------|
A|----------0-----------0-9-----------0-|
G|----7-----------7-------------7-------|
D|--0-----0-----0-----0-------0-----0---|
A|---9-----9-----9-----9-------9-----9--|
D|-0-----0-----0-----8-------9-----9----|

e|-------------------0|
A|------0---------0---|
G|-----0-0-------0-0--|
D|---0-----0----4---4-|
A|----9---9----5------|
D|-10---------5-------|

Part 1
You're smart...

Part 4
...on my eyes...
e|--------------------------------------0-|
A|----------0-----5----0------------0---0-|
G|----7---------6-----6-0-----7---------6-|
D|--0-----0------5----------0-----0-----5-|
A|---9-----9---0-----0-------9-----9----0-|
D|-0-----0-----------------0-----0--------|

Part 5
I know...
e|-----------------------------------------------------|
A|----0-----------0--------0-5-----0-------------------|
G|---0------0----0--------0-------0--------0-----------|
D|--0------4----0------2h4-------0------2h4-4-2---0----|
A|--------2-----------2----------------2-------------4-|
D|-5-----2-----5-----2----------5-----2-----------5--7-|

Part 3
Part 1 (x3)
Part 2
Part 3
Part 1
Part 4

e|-------------------------------------------------|
A|----0-----------0--------0------0----------------|
G|---0------0----0--------0------0--------0--------|
D|--0------4----0------2h4--0---0------2h4-4-2---0-|
A|--------2-----------2---------------2------------|
D|-5-----2-----5-----2---------5-----2-----------5-|

...we should tonight
x3
e|---------------|
A|---------------|
G|---------------|
D|-----0-------0-|
A|-4-------4-----|
D|-7---9---7---5-|

Final
e|-----------------------0--------------|
A|----------0-----------0-9-----------0-|
G|----7-----------7-------------7-------|
D|--0-----0-----0-----0-------0-----0---|
A|---9-----9-----9-----9-------9-----9--|
D|-0-----0-----0-----8-------9-----9----|

e|--------------------------------------0-|
A|------0---------0-----0h2-0h2-0-------0-|
G|-----0-0-------0-0---0---------0------0-|
D|---0-----0----4---4-4------------0----0-|
A|----9---9----5-----5------------4-----0-|
D|-10---------5---------------------0---0-|
Tap to rate this tab
# A B C D E F G H I J K L M N O P Q R S T U V W X Y Z