Song name
# A B C D E F G H I J K L M N O P Q R S T U V W X Y Z

Owen - Declaration Of Incompetence tab

-------------------------------------------------------------------------------
			     OWen - Declaration of Incompetence
-------------------------------------------------------------------------------
Tabbed by: ivadell
Email: sadstyle36@hotmail.com

Tuning: DADF#AD, Capo 2

D|------------------0------------------------0--|
A|--------0--------------------0----------------|
F#|---0-----------0--------0-------------0------|
D|------5-------5------------5---------5---5----|
A|----------------------------------------------|
D|--0---------2----------0-----------2----------|

D|------------------0---------------------------|
A|--------0--------------------0----------------|
F#|---0-----------0--------0-------------0------|
D|------5-------5------------5---------5---0----|
A|----------------------------------------------|
D|--0---------2----------0-----------2----------|

D|------------0-----------------0---------------------------------0-----0-----0---0------|
A|--------4-----0-----------4-----0-----------0---------------0---------4---4---7-----0--|
F#|---0-----0-----------0-----0-------------------0---------0-----------0-----------7----|
D|------0-----------------0-----------------0---5---------------0-------0----------------|
A|--2-------------------------------------4---------------7-------------2----------------|
D|--------------------5-----------------4---------------5--------------------------------|

D|------------------------------0---0------|
A|----0-------0---------0---------7-----0--|
F#|-5-------5---------7-------7-------7----|
D|------0-------0---------0----------------|
A|--------------------0-------0------------|
D|--5-------5------------------------------|
Tap to rate this tab
# A B C D E F G H I J K L M N O P Q R S T U V W X Y Z