Song name
# A B C D E F G H I J K L M N O P Q R S T U V W X Y Z

Owen - O Evelyn tab

  artist:   Owen
  song:     O, Evelyn
  tuning:   EADGBD
  capo:     2

  main - sound top D where appropriate

  C                                      Gsus4    F
------------------------------------------------------------------|
--1--------1-1-1-1--------1-1-1-1--------1--------1------1-1---1--|
--0--------0-0-0-0--------0-0-0-0--------0--------0------0-2---0--|
--2--------2-0-3-2--------2-0-3-2--------0--------3------3-3---3--|
--3--------3-3-3-3--------3-3-3-3--------x--------3------3-3---3--|
-----------------------------------------3------------------------|

  C                fill 1                Gsus     F
------------------------------------------------------------------|
--1--------1-1-1-1--------1-1-1-1--------1--------1------1-1---1--|
--0--------0-0-0-0--------0-0-0-0--------0--------0------0-2---0--|
--2--------2-0-3-2--------2-0-3-2--------0--------3------3-3---3--|
--3--------3-3-3-3--------3-3-3-3--------x--------3------3-3---3--|
-----------------------------------------3------------------------|

  Am fill 2    G fill 3
--2------------0---------|
--1------------0---------|
--2------------0---------|
--2------------0---------|
--0------------x---------|
---------------3---------|


for the fills, sweep through the chord with one downstroke then hit the other two notes 
before going back to strumming

  fill 1                 fill 2           fill 3
----------0----------------------2----------------0-----------|
---------1---1------------------1---1------------0---0--------|
--------0------0---------------2------0---------0------0------|
-------2----------------------2----------------0--------------|
--3----------------------0------------------------------------|
------------------------------------------3-------------------|


bridge (sorry work out the timing on your own)

  F6   Em7  F6   G    Am   G    F6      Dm      G    G7

--0----0----0----0----2----0----0-------3-2-0---0----3----|
--1----0----1----0----1----0----1-------3-------3----3----|
--2----0----2----0----2----0----2-------2-------0----0----|
--3----2----3----0----2----0----3-------0-------0----0----|
--3----2----3----x----0----x----3---------------x----x----|
--x----0----x----3---------3----x-------x-------3----x----|
Tap to rate this tab
 
# A B C D E F G H I J K L M N O P Q R S T U V W X Y Z