Song name
# A B C D E F G H I J K L M N O P Q R S T U V W X Y Z

Owen - Dead Men Dont Lie tab

-------------------------------------------------------------------------------
			    Dead Men Don't Lie - Owen
-------------------------------------------------------------------------------
Tabbed by: ivadell
Email: sadstyle36@hotmail.com

Tuning: DGEGCD, capo 5

D|-2-----------------------------0---------------|
C|------0----7---------------0---------0---------|
G|-------------------------4---4----------4---0--|
E|----1---------0---------------------------5----|
G|----------------5------7-----------------------|
D|-0---------7---------5-------------5-----------|

D|-2---0--5h7h5------------------0----------------|
C|-0---0--------0------------0-----------0--------|
G|-0---0----------4--------4---4-------4---4---0--|
E|-1---0------------5------------------------5----|
G|-2---x-----------------7------------------------|
D|-0---7---------------5-------------5------------|

x4
D|---------|
C|---0-----|
G|------0--|
E|---5-----|
G|------5--|
D|-3-------|

x4
D|---------|
C|---0-----|
G|------4--|
E|---5-----|
G|------7--|
D|-5-------|

D|------2-------|
C|-0----0----0--|
G|-0----0----0--|
E|-8----1----5--|
G|-9----2----5--|
D|-7----0----3--|
Tap to rate this tab
# A B C D E F G H I J K L M N O P Q R S T U V W X Y Z