Song name
# A B C D E F G H I J K L M N O P Q R S T U V W X Y Z

Owen - Brown Hair In A Birds Nest tab

-----------------------------------------------------------------------------
			     Brown Hair in a Bird's Nest - Owen
-----------------------------------------------------------------------------
Tabbed by: Intheatlasposition [youtube.com/intheatlasposition]

Tuning: CGDGBD (Capo 3)

disclaimer: The fingerpicking in the tab may not be entirely accurate but the chord 
shapes are, so get inventive and figure out the rhythm yerself!

[INTRO]
D|----------------0--------------|
B|------0--------0---------------|
G|---------0-------------0-------|
D|-10---------10--------4---4----|
G|----9------9---------2-----2---|
C|-9-----9------------2----2--2--|

[VERSE]
D|--------------------------------------0-------------|
B|-0----------0------0---------0-------0--------------|
G|--------0------0h2--------------0-----------0-------|
D|-----7----7----0--------10---------10------4---4----|
G|---7-----------------------9------9-------2-----2---|
C|-7-----7-------------0--9------9---------2----2--2--|
   BROWN hair in a bird's nest...
   A pile of teeth under a tree...         THE frayed sleeves of a
   poorly tailored jacket...

D|----------------0--------------|
B|------0--------0---------------|
G|---------0-------------0-------|
D|-10---------10--------4---4----| X3 [last time through go into following riff]
G|----9------9---------2-----2---|
C|-9-----9------------2----2--2--|
   ANOTHER wasted night...
   SEARCHING for life...
D|---------------------0------------------------------|
B|-------------------------------------------------0--|
G|----0------------0----------0------------------3----|
D|---4-4----------4-4--------4-4-------------0--------|
G|--2---2--------2---2------2---2-----------0---------|
C|-2-----2------2----------2-----2--------0----0------|
   DIGGING up graves 'cause I've got something to say...to the dead and buried.

[BRIDGE]
D|--------------|
B|--------------|
G|------0-------|
D|-----2-p0--4--|
G|----0---------|
C|-2/4-------2--|
                         ["BRIDGE END"]
D|--------------0------------||-----------------0--|
B|----0--------0-------------||---0----------------|
G|--------0----------0-------||--------0---0-------|
D|-10-------10------4---4----||-------7---7--------|
G|---9-----9-------2-----2---||-----7---7----------|
C|-9----9---------2----2--2--||---7------7----11---|

[CHORUS]
D|---------------------------------------------------------|
B|---------------------------------------------------------|
G|----0-------------------0---------0---------------0------|
D|---2--4---------------2---4------2--4-----------2----7/--|
G|--0-----------------4-----------0-------------4----------|
C|-0----2-----------4-------2----0----2-------4------------|
   WELL you know how my mind it drifts...A small boat lost at sea.
   CALLOW and rudderless...        To say the least.

[POST-CHORUS]
D|--------0------------------0-----------------|
B|------------------0------------0----------0--|
G|-0---------0---------0------------0--0-------|
D|----0---------5h7-------2--------2--2--h7----|
G|---4---------4---------4-------5---5---------|
C|-7----7----5---------4----4------------------|
   I swear on my mother's gravy...
   THAT I didn't lie to you...
   I was only, as usual,

D|--------------0----------------------0------------|
B|------0------0--------------------0----------0----|
G|--------0-----------0-------0-------7-----0-------|
D|-10-------10-------4---4-------7---------2-0------|
G|----9----9--------2-----2-----7---------0---------|
C|-9-----9---------2----2--2--7----7-------------0--|
   confused.
   IT was wrong of me to curse your family's name, and your faith...
   AND an answering machine that I knew it didn't know how to use...
                 FOR how long must I lie awake?
   FOR how many long nights shall I keep digging up graves?
["BRIDGE END"]

D|------------------------------------|
B|------------------------------------|
G|----0-------0-------0---------0-----|
D|---2--4----2--4----2--4----0h2--7/--| X2
G|--0-------4-------0-------4---------|
C|-0----2--4----2--0----2--4------7/--|

D|-------------------------|
B|-------0-----------------|
G|------3----------0----0--|
D|----0-----------2-p0--4--|
G|---0-----------0------2--|
C|-0----------2/4-------2--|
[Fin..]
D|--------0--------------------------0--------------------|
B|-----------0------------0----------------0-----------0--|
G|-0------------0--------------0--------------0---0-------|
D|----0------------0h5h7----------2----------2---2--h7----| [Once w/o vocals]
G|---4-----4------4--------4-----4-----4---5---5----------|
C|-7----7-------5--------5-----4----4---------------------|
   AND I swear on my mother's gravy...
   THAT I didn't lie to you...
   I just didn't tell the truth.

[repeat TWICE]
Then, [BOTTOM part of 'BRIDGE']
Tap to rate this tab
 
# A B C D E F G H I J K L M N O P Q R S T U V W X Y Z