Song name
# A B C D E F G H I J K L M N O P Q R S T U V W X Y Z

Owen - Nobodys Nothing tab

Tuning DADGAD, CAPO 4th fret.

D-|-----------0-0----------|
A-|-----------0-0----------|
G-|-0-0-0-0-0-2-2----------|
D-|-0-0-0-0-0-0-0----------|
A-|-0-0-2-0-2-0-0----------|
D-|-0-0-0-0-0-0-0----------|


D-|-0----------------------|
A-|-4-----------2----------|
G-|-0-----------0----------|
D-|-2-----------0----------|
A-|-0-----------2----------|
D-|-------------2----------|



D-|-0----------------------|
A-|-4-----------2----------|
G-|-0-----------0----------|
D-|-2-----------0----------|
A-|-0-----------2----------|
D-|-------------2----------|

| | | |
D-|-0----------------------|
A-|-0----------------------|
G-|-0----------------------|
D-|-5----------------------|
A-|-5----------------------|
D-|-5----------------------|



D-|-----7-------------0----|
A-|-7s9---9s7p5-4b5b4-0----|
G-|------------------------|
D-|------------------------|
A-|------------------------|
D-|------------------------|


D-|------------------------|
A-|------------------------|
G-|------------------------|
D-|-445-4-5-7-0------------|
A-|------------------------|
D-|-------------445-4-5-7-0|

| | | |
D-|------------------------|
A-|-----------------------0|
G-|---------------------0--|
D-|-----0-4-5p4p2p0---0----|
A-|-0h2-------------4------|
D-|------------------------|

| | | |
D-|-2s4-2-0-2-4-0-----0----0--|
A-|-0---0-0-0-0-0-------------|
G-|---------------4p2--4p2----|
D-|------------------0----0---|
A-|---------------------------|
D-|---------------------------|

D-|-----0-----0-------------|
A-|-------------------------|
G-|-4p2---4p2---------------|
D-|----0-----0--------------|
A-|-------------------------|
D-|-------------0-----------|
Tap to rate this tab
# A B C D E F G H I J K L M N O P Q R S T U V W X Y Z