Song name
# A B C D E F G H I J K L M N O P Q R S T U V W X Y Z

Owen - The Armoire tab

---------------------------------------------------------------
			     The Armoire - Owen
---------------------------------------------------------------
Tabbed by: (Inthe)atlasposition
www.youtube.com/intheatlasposition

Tuning: DGCGAC (Capo 1)

[Intro/VERSE]
C|--------2----2h4-----------0-----------------------------0---|
A|-0--------------------2^----------0----------0----2----------|
G|----0------0------0------0----0-----0----0-----0-----0-----0-|
C|---0------0------0------0----0-----0----0-----0-----0-----0--|
G|--------------------------------------------------0----------|
D|-3----3------3------3------3----3-----3----3-----------2-----|
...The armoire that you found by the dumpster while visiting your sister. 
It looks fine in a living room where the others you've rescued go to die.
...That old mirror by the bed without much of anything to reflect; 
save for a few holes, a crippled bedpost, shadows that don't move. 

[CHORUS]
C|--------0---------0--------------------------------------|
A|-10--------10--------/7----/5----/3-----3----3-----3-----|
G|-----0--------0----------0-----0----0h2----2---0h2----2--|
C|----0--------0----------0-----0----0----------0----------|
G|---------9---------9-------------------------------------|
D|-10---10---10---10---/7----/5----/3-------3--3-------3---|
...Cobwebs in the corner. The dead spider on the wall.

C|--------0-------0-|
A|-7--------8-------|
G|----4--------7----|
C|---0--------0-----|
G|------------------|
D|-7----7--/8----8--|
...Well I'm "home," but I'm not home.

[VERSE] x2

[CHORUS]
...Boxes in the basement that were spared from rising waters. 
Discarded blood-stain drum-skin and sticks rest on your mother's mattress.

[Bridge]
C|--------0--------0--------0--------0-------0---------0------|
A|-7--------8--------2-----------0-----5--------5----------2--|
G|----4--------7--------0-----5-----------0---0----0----------|
C|---0--------0--------0--------0--------5--------5-------(2)-|
G|-------------------------------------0----0---0----0-----0--|
D|-7----7---8----8---2----2---3----3--------------------------|
...I'm home. Somehow when I was gone this house I'd left for dead lingered on.

[Outro, pt. 1]
C|-------0-------0--------0---------0-||-------0---------0-|
A|----0----7-------3---------2--------||-3--------2--------|
G|-5----------7--------0--------0-----||----0--------0-----| x2, then...
C|---0-------0--------0--------0------||---0--------0------| 
G|---------5----5-(2)---(2)---0-------||-2----2---0--------|
D|-3----3----------3-----3--------2---||---------------2---|
...I'm home with my own family in tow and everything's the same but different.
...And I'm home again but the devil knows I'm born-again. 
I can't hold these walls up on my own.

[VERSE] x1

[Outro, pt.2]
C|-----------------------------0--|
A|-10----------5h7----5p3------3--|
G|-----0-----------0------4----0--|
C|------0-----------0------4---0--|
G|----9-----0-----------------(2)-|
D|-10-----9/---7------/5-------3--|

Tap to rate this tab
# A B C D E F G H I J K L M N O P Q R S T U V W X Y Z