Song name
# A B C D E F G H I J K L M N O P Q R S T U V W X Y Z

Owen - Take Care Of Yourself tab

-------------------------------------------------------------------------------
                             Take Care Of Yourself- Owen
-------------------------------------------------------------------------------
Tabbed by: ivadell      
E-mail: sadstyle36@hotmail.com

Tuning: DADGAE, Capo 1

e|------------------------------------------------------------------------------------|
A|----0-------------------0-------------------0---------------------0-----------------|
G|--------------0-------------------0-------------------0-----------------------0-----|
D|------------4---4---------------4---4---------------4---4-----------------2h4---4p2-|
A|----------2-------------------2-------------------2------------0--------2-----------|
E|-0------2------------0------2------------0------2------------0--------2-------------|

e|-------0-----------------------0-----------------------0--------------|
A|----5--------------0--------5--------------0--------5--------------0--|
G|-6---------------4-------6---------------4-------6---------------4----|
D|-0-------------0---------0-------------0---------0-------------0------|
A|-0-----------4-----------0-----------4-----------0-----------4--------|
E|-0---------5-------------0---------5-------------0---------5----------|

---------0------------------|
------5-------------0---0---|
---6------------------4-----|
---0--------------0-------4-|
---7------------4-----------|
---7----------5-------------|


e|-----------------|
A|----0----------0-|
G|-------------0---|
D|-----------0-----|
A|---------3-------|
E|-0---------------|

e|----------------------------------------------------|
A|----------------------------------------------------|
G|----------------------------------------------------|
D|---0-----0-----0-----0-----0-----0----------0-----0-|
A|---------------------------------------4------------|
E|-5-----0-----5-----0-----5-----0-----7----7---4-5---|

e|------------|
A|------------|
G|---0--------|
D|-----4-2--0-|
A|-2----------|
E|----------0-|
Tap to rate this tab
 
# A B C D E F G H I J K L M N O P Q R S T U V W X Y Z