Song name
# A B C D E F G H I J K L M N O P Q R S T U V W X Y Z

Owen - Playing Possum For A Peek tab

Cred: John Lubushkin for riff 1, 2 & 5
Tuning: CGDGBD Capo 6

[riff 1]
D|----0--0--0--0---0--0--0----0--0--0--0-------|
B|---3--3--3--3---1--1--1----0--0--0--0--------|
G|-----0-----0------0-----0----0-----0---------|
D|--------0------------2----------0------------|
G|--0------------2-----------------------------|
C|--------------------------4------------------|

[riff 2]
D|----0--0--0--0---0--0--0--0---0--0--0--0---0--0--0--0-------|
B|---1--1--1--1---0--0--0--0---1--1--1--1---0--0--0--0--------|
G|-----0-----0------0-----0------2-----2------0-----0---------|
D|--------2------------0------------0------------0------------|
G|--2---------------------------------------------------------|
C|---------------4------------2------------4------------------|

D|----0--0--0--0---0--0--0--0---0--0--0--0---0--0--0--0--------|
B|---1--1--1--1---0--0--0--0---1--1--1--1---1--1--1--1---------|
G|-----0-----0------0-----0------0-----0------2-----2----------|
D|--------2------------0------------2------------0-------------|
G|--2----------------------------------------------------------|
C|---------------4------------0------------2-------------------|

[riff 3]
D|----0-2---------------------------------0-2-----------------------------|
B|--------------3----------------------------------3----------------------|
G|--0-----0-2-4---0---------------------0----0-2-4---------0--------------|
D|------------------2-0-5-4-----0------------------------0---4-5-4--0-2-0-|
G|--------------------------4-5---0-2-4-------------4-5-------------------|
C|------------------------------------------------------------------------|

[riff 4]
D|------0---------|
B|--0-1---1-0-----|
G|------------0---|
D|----------------|
G|----------------|
C|----------------|

[riff 5]
D|----5--5--5--5---5--5--5--5---5--5--5--5---5--5--5--5-------------|
B|---3--3--3--3---3--3--3--3---3--3--3--3---3--3--3--3--------------|
G|-----0-----0------4-----4------0-----0------4-----4---------------|
D|--------4------------0------------4------------0------------------|
G|---------------0--------------------------------------------------|
C|--0-------------------------0------------4------------------------|

D|----5--5--5--5---5--5--5--5---5--5--5--5---5--5--5--5---5--5-5--5--5--5-|
B|---3--3--3--3---3--3--3--3---3--3--3--3---3--3--3--3---3--33--3--3--3---|
G|-----0-----0------0-----0------0-----0------0-----0------0----0-----0---|
D|--------4------------4------------4------------4------------4----4------|
G|------------------------------------------------------------------------|
C|--0------------0------------4------------4------------2----2------------|


[riff 6]
D|-----2p0---------------------------------------------|
B|---------0---0---------------------------------------|
G|--0--------2---0-------------------------------------|
D|--------------------------------0--------------------|
G|------------------0-2-0-2-0-2-4-----0-2-0-2-4-2-0----|
C|-----------------------------------------------------|

D|-----2p0---------------------------------------------|
B|---------0---0---------------------------------------|
G|--0--------2---0-------------------------------------|
D|--------------------------------0--------------------|
G|------------------0-2-0-2-0-2-4-----0-2-0-2-4--------|
C|-----------------------------------------------4-----|
Tap to rate this tab
# A B C D E F G H I J K L M N O P Q R S T U V W X Y Z