Song name
# A B C D E F G H I J K L M N O P Q R S T U V W X Y Z

Owen - Declaration Of Incompetence tab

Artist:     Owen
Song:       Declaration of Incompetence


|--------------0-----------------0---------------0---------------------|
|------0---------------0-----------------0---------------0-------------|
|--1-2-----2-1-----1-2-----2-1-2-----1-2-----2-1-----1-2-------2-1-----|
|------------------------------------------------------------------2---|
|----------------------------------------------------------------------|
|0-------2-------0-------2---------0-------2-------0-------0h2---------|
repeat 4x

|-------------------------|
|------4-5---------4-5----|
|----------4-----------4--|
|--6-----------6----------|
|4---4-------0---0--------|
|-------------------------|


|--------------0-----------------0---------------0---------------------|
|------0---------------0-----------------0---------------0-------------|
|--1-2-----2-1-----1-2-----2-1-2-----1-2-----2-1-----1-2-------2-1-----|
|------------------------------------------------------------------2---|
|----------------------------------------------------------------------|
|0-------2-------0-------2---------0-------2-------0-------0h2---------|
repeat 4x

|-------------------------|-------------------------0--------0-2-0-----|
|------4-5---------4-5----|-----------------------5-4-----/4-------4-0-|
|----------4-----------4--|-------4-2-1-------4-----4------------------|
|--6-----------6----------|-----6---------4/6---2---2------------------|
|4---4-------0---0--------|---0---------0-----------0------------------|
|-------------------------|-5------------------------------------------|


I haven't figured out the next part completely, the chorus, 
but I think one of the guitars is repeating something like:

|-------7-| repeat four measures
|---7h9---|
|/9-------|
|---------|
|---------|
|---------|
(if anyone's figured this out and would like to lend a hand, 
please email me and I'll update this tab)


|--------------0-----------------0---------------0---------------------|
|------0---------------0-----------------0---------------0-------------|
|--1-2-----2-1-----1-2-----2-1-2-----1-2-----2-1-----1-2-------2-1-----|
|------------------------------------------------------------------2---|
|----------------------------------------------------------------------|
|0-------2-------0-------2---------0-------2-------0-------0h2---------|
repeat 4x

|-------------------------|-------------------------0--------0-2-0-----|
|------4-5---------4-5----|-----------------------5-4-----/4-------4-0-|
|----------4-----------4--|-------4-2-1-------4-----4------------------|
|--6-----------6----------|-----6---------4/6---2---2------------------|
|4---4-------0---0--------|---0---------0-----------0------------------|
|-------------------------|-5------------------------------------------|

repeat the chorus part to end



sorry for the incomplete tab, I generally don't submit one unless it's complete,
but there are so few owen tabs up that I thought I'd share what I've got.
email me or send me a message if I screwed up, or if you know the missing parts.


enjoy



email: modernrocko@gmail.com
aim:   modernrocko
yahoo: modernmusty
msn:   modernrocko@hotmail.com
Tap to rate this tab
# A B C D E F G H I J K L M N O P Q R S T U V W X Y Z