Song name
# A B C D E F G H I J K L M N O P Q R S T U V W X Y Z

Owen - You Should Do It Now While Its On Your Mind tab

Artist: Owen
Song:   You Should Do It Now While It's On Your Mind
Tuning: standard EADGBe

|------------------------------------------------------------------|
|-/5-5-------4/5----------------------------/5-5-------------0-----|
|------4---------4----4-2-1----------------------4---------4-------|
|---------------------------2----4/6-2-----------------4h6---------|
|---------2---------4--------------------2-------------------------|
|0--------------------------0-----------------------5--------------|
repeat 8x

Note:  on the 8th time playing the above measure,
       the last part should be played like this:
|-------------|
|----------0--|
|--------5----|
|----4h6------|
|-------------|
|-5-----------|


|---------------------------|
|------------------------0--|
|----4-----------------5----|
|--2---4-6-2-1-----4/6------|
|--------------0------------|
|0--------------------------|
repeat to end




email: modernrocko@gmail.com
aim:   modernrocko
yahoo: modernmusty
msn:   modernrocko@hotmail.com
Tap to rate this tab
 
# A B C D E F G H I J K L M N O P Q R S T U V W X Y Z