Song name
# A B C D E F G H I J K L M N O P Q R S T U V W X Y Z

Owen - In The Morning Before Work tab

Owen
In The Morning, Before Work
tabbed by: John Lubushkin (j_lubushkin@hotmail.com)

Capo 3
Standard tuning

intro:
e|----------2--------------------2-------------------------------------------|
B|------------3------------------3-------------------------------------------|
G|-----------------2-------------0---repeat----------------------------------|
D|--2h4-0------2h4-2-------------0-------------------------------------------|
A|------------------------4p0----x-------------------------------------------|
E|-------------------------------3-------------------------------------------|

verse
e|--2------------------2--------2------------------2-------------------------|
B|--3------------------3--------3------------------3-------------------------|
G|--2---------2--------0--------4---------2--------0-------------------------|
D|--0---2h4p2-2--------0--------0---2h4p2-2--------0-------------------------|
A|----------------4p0--x--------2-------------4p0--x-------------------------|
E|---------------------3---------------------------3-------------------------|

chorus
e|---2----0----2----0----2----0----------------------------------------------|
B|---3----3----3----0----3----3----------------------------------------------|
G|---2----2----0----1----0----0----------------------------------------------|
D|---0----2----0----0----0----2----------------------------------------------|
A|--------0----x----2----x----0----------------------------------------------|
E|-------------3----0----3---------------------------------------------------|

bridge
e|-------------------2-------------------2-------------------2---------------|
B|---------3-------------------3-------------------3-------------------------|
G|---------------------------------------------------------------------------|
D|-----4-----4---4-----4---4-----4---4-----4---4-----4---4------4------------|
A|---2---2-----2---2-----1---1-----1---1-----0---0-----0---0-----------------|
E|---------------------------------------------------------------------------|

e|-------------------0----2----0---------------------------------------------|
B|---------3--------------3----3---------------------------------------------|
G|------------------------0----0---------------------------------------------|
D|-----4-----4---4-----4--0----2---------------------------------------------|
A|------------------------x----0---------------------------------------------|
E|---4---4-----4---4------3--------------------------------------------------|

last chord is x02022
Tap to rate this tab
 
# A B C D E F G H I J K L M N O P Q R S T U V W X Y Z