Song name
# A B C D E F G H I J K L M N O P Q R S T U V W X Y Z

Owen - Dead Men Dont Lie tab

Owen: Dead Men Don'e Lie (same as his song Accidentally pretty much as well)
Standard tuning with no capo

e------5------------8--------------0--1--0--3-----1--0--------------|
b--------------6----------------------------------------3--1--------|
g----------3-------------2------0-----------------------------------| 7x
d-------------------0------3----------------------------------------|
a----------------------------3-----------------3--------------------|
E------3------------------------------------------------------------|


e------5------------8--------------0--1--0--3-----0--1--0-----------|
b--------------6-------------------------------------------3--1-----|
g----------3-------------2------0-----------------------------------| 1x
d-------------------0------3----------------------------------------|
a----------------------------3-----------------3--------------------|
E------3------------------------------------------------------------|

I'm not sure about the second chord he strums here but this is what I play
e--5--55---3----8h10-8------------------0--1--0--3-----0--1--0------|
b--6--66---5-------------6--5--3--1----------------------------3--1-|
g--7--77---5--------------------------------------------------------| 4x
d--7--77---5--------------------------------------------------------|
a--5--55---3--------------------------3--------------3--------------|
E--5--55---3--------------------------------------------------------|


e--5--55---3----8h10-8------------------0--1--0--3------1--0--------|
b--6--66---5-------------6--5--3--1--------------------------3--1---|
g--7--77---5--------------------------------------------------------| 1x
d--7--77---5--------------------------------------------------------|
a--5--55---3--------------------------3--------------3--------------|
E--5--55---3--------------------------------------------------------|

Then he just strums the chords once at the end.
e--1------5------1--------------------------------|
b--1------6------1--------------------------------|
g--2------7------3--------------------------------|
d--3------7------3--------------------------------|
a--3------5------1--------------------------------|
E--1------5------1--------------------------------|
Tap to rate this tab
 
# A B C D E F G H I J K L M N O P Q R S T U V W X Y Z