Guitaretab - guitar tabs
Song name
# A B C D E F G H I J K L M N O P Q R S T U V W X Y Z

Owen - Im Not Going Anywhere Tonight tab

I'm Not Going Anywhere Tonight
Owen
No Good for No One Now
tabbed by: John Lubushkin

Tuning: CGDGBD

taken from Maureen's tab:
verse:
d.> -----55---55---------55--5----------|
b.> -----33---33---------33--3----------|
g.> -----00---00---------00--0----------| repeat x3
d.> -----00---00--0------00--0----------|
g.> -55---55---5----00---0--0-----------|
C.> ---------------------------------------|

then
d|--5---5----------------------------------|
B|--3---3----------------------------------|
g|--0---0----------------------------------|
D|--4---5----------------------------------|
G|--x---x----------------------------------|
C|--4---5----------------------------------|
[ Tab from: http://www.guitaretab.com/o/owen/82653.html ]
chorus:
d|---5-------------0---------------------------------------------------------|
B|---3----7----3---0---------------------------------------------------------|
g|---0----0----0---0---------------------------------------------------------|
D|---0----4----2---0---------------------------------------------------------|
G|--0-----x----x---0---------------------------------------------------------|
C|-------6----4--------------------------------------------------------------|

outro:
e|--5--5--5--5-4-5-----------------------------------------------------------|
B|--3--3--3--0---------------------------------------------------------------|
G|--0--0--0--0---------------------------------------------------------------|
D|--x--x--x--0---------------------------------------------------------------|
A|--5--4--2--0---------------------------------------------------------------|
E|---------------------------------------------------------------------------|
Related for Im Not Going Anywhere Tonight tab