Guitaretab - guitar tabs
Song name
# A B C D E F G H I J K L M N O P Q R S T U V W X Y Z

Owen - Most Days And tab

Credit: Dean Moriarty [for riffs 1, 2, and 5]
from Owen Polyvinyl Message Boards

Tuning: DADEAC# Capo 5th fret

[riff 1]
C#---------3-------------------0----------------------3---|
A-------0--0------------0---------0---------------0---0---|
E-----0----0---------0-----0---------0---------0------0---|
D-----------------------------------------------------~---|
AŚ0-------------------------------------------------------|
D---------------2--------------------------4~~------------|

[riff 2]
C#------------------------0-------|
A--------------------0h2----0-----|
EŚ---5p4h2p0------0---------2-----|
D-2----------0--------------------|
AŚ0------------4--0---------------|
D--------------2--4---------0-----|

[riff 3]
C#----0---------0-------0------------|
A---2---0----2----0---2---0----------|
E----------0--------0-------0--------|
D------------------------------a lot-|
AŚ-----------------------------------|
D------------------------------------|
[ Tab from: http://www.guitaretab.com/o/owen/82700.html ]
[riff 4]
C#-----------0-----------0-----------------0--|
A------0----------0------------2-----0--------|
E----0-----0----0-----0------0-----0-----0----|
D--2-----2----2-----2-----2------2-----2------|
AŚ--------------------------------------------|
D---------------------------------------------|

[riff 5]
C#--0-0-0-0-0-0-0-0-0-0--0-------|
A---4-4-4-4-2-4-5-4-2-4--0-------|
E---0-0-0-0-0-0-0-0-0-0--0-------|
D---0-0-0-0-0-0-0-0-0-0--0--x2---|
A---0-0-0-0-0-0-0-0-0-0--0-------|
D---0-0-0-0-0-0-0-0-0-0--0-------|

[riff 6]
C#------------------------------------|
A--0---------------0------------------|
E----4--------4------4--------4-------|
D------4\2/4------------4\2/4----4----|
A-------------------------------------|
D--0---------------2------------------|

[riff 7]
C#---3---3---3---3---3---3--3---3----|
A------4---4---4---4---4---4--4---4--|
E------------------------------------|
D------------------------------------|
AŚ-----------------------------------|
D------------------------------------|

[riff 8]
C#-----------0-----------0-----------------0--|
A------0----------0------------2-----0--------|
E----0-----0----0-----0------0-----0-----0----|
D--2-----2----2-----2-----2------2-----2------|
AŚ--------------------------------------------|
D---------------------------------------------|
Related for Most Days And tab