Song name
# A B C D E F G H I J K L M N O P Q R S T U V W X Y Z

Owen - A Bird In Hand tab

Tuning: D A D G A D (Capo 1)
there are a billion parts; so i'll say where each comes in

[riff 1] the main intr0/verse riffs
D|---------------------------------------------|
A|---------------------------------------------|
G|---------------------------------------------|
D|--0--------0-----4--x3------4---4------4-----|
A|-------0h4---4------------7---7---5----------|
D|-----0---------5--------0------------5-------|

[riff 2] backing guitar during intro/verse riffs
D|----7------------7-------7--------------7-------|
A|------9------9------9--------9-------------9----|
G|--------7------7------7---------7-----7---------|
D|--0-------0-------0--------0-------0------------|
A|------------------------------------------------|
D|------------------------------------------------|

[riff 3] (comes in at about 1 minute; then 1:55~; outro)
D|-------0-0------0-0-----0-0------0-0---|
A|-------5-5------5-5-----5-5------5-5---|
G|-----6--------6-------6--------6-------|
D|---7--------7-------7--------7---------|
A|---------------------------------------|
D|---------------------------------------|

[riff 4]
D|-------------0-------------------------0--------------0--------0------|
A|----------0----0----------------9---------0---------------5------0----|
G|--------4--------4----------0h4--------0-----0------6------6----------|
D|------0------------0------0---------0-------------0----------7--------|
A|----------------------------------------------------------------------|
D|---5-------------------5---------5-------------7--------7-------------|

[riff 5}
D|------8--0----------------|
A|----5------5--------------|
G|--6----------6----7-6-----|
D|---------------7------7---|
A|--------------------------|
D|--------------------------|

[riff 6] (3;18 when i'm too..)
D|----------------------------|
A|-----------0----------5-----|
G|-------0h4--------------6---|
D|-----0--------------------7-|
A|----------------------------|
D|--5-------------5/7---------|

[riff 7] the solo
D|-------------------------------------------------------------------------|
A|--5-------4/5----------------------------9-----------------------9-------|
G|----6---------6------------------------------5-4-5--5-4------------7-----|
D|-------7--------7---4-5-7--------------------------------7--4-5----------|
A|--------------------------7--9-4-5^-7-9----------------------------------|
D|-------------------------------------------------------------------------|

D|------------------------------------------------|
A|--5-------4/5-----------------------------------|
G|----6---------6---------------------------------|
D|-------7--------7---4-5-7-----------------------|
A|--------------------------7--9-5^---5-4-5-7-9~~-|
D|------------------------------------------------|
Tap to rate this tab
 
# A B C D E F G H I J K L M N O P Q R S T U V W X Y Z