Song name
# A B C D E F G H I J K L M N O P Q R S T U V W X Y Z

Owen - May First Brings Lots Of Laughs tab

Artist: Owen
Album : Owen/Rutabega Split
Song : May First Brings Lots of Laughs
Tuning: CGDGA#D Capo 6
tabbed by let it burn at the polyvinyl msg board

Intro/Verse
D-------0----0---0-----0----0---0-----0----0---0-----0----0---0--------|
A#-----0----0---0-----0----0---0-----0----0---0-----0----0---0---------|
G--------------0--------------0--------------0--------------0----------|
D---------0--------------0--------------0--------------0---------------|
G----0--------------0--------------0--------------0--------------------|
C----------------------------------------------------------------------|

D-------0----0---0-----0----0---0-----0----0---0-----0----0---0--------|
A#-----0----0---0-----0----0---0-----0----0---0-----0----0---0---------|
G----------------------------------------------------------------------|
D---------0----3---------0----3---------0----3----------0---3----------|
G----------------------------------------------------------------------|
C----5--------------5--------------5--------------5--------------------|

D-------0----0---0-----0----0---0-----0----0---0-----0----0---0--------|
A#-----0----0---0-----0----0---0-----0----0---0-----0----0---0---------|
G--------------0--------------0--------------0--------------0----------|
D----------------------------------------------------------------------|
G---------5--------------5--------------5---------------5--------------|
C----4--------------4--------------4--------------4--------------------|

D-------0----0---0-----0----0---0-----0----0---0-----0----0---0--------|
A#-----0----0---0-----0----0---0-----0----0---0-----0----0---0---------|
G----------------------------------------------------------------------|
D--------------3--------------3---------0----4----0---------0----------|
G---------5--------------5---------------------------------------------|
C----5--------------5--------------6--------------------6--------------|

D-------0----0---------------------------------------------------------|
A#-----0----0----------------------------------------------------------|
G----------------------------------------------------------------------|
D---------------------------back to beginning--------------------------|
G---------2------------------------------------------------------------|
C----2-----------------------------------------------------------------|
Second time around this is played eight times then leads into the chorus
D-------0----0---0-----------------------------------------------------|
A#-----0----0---0------------------------------------------------------|
G--------------0-------------------------------------------------------|
D---------0------------------------------------------------------------|
G----0-----------------------------------------------------------------|
C----------------------------------------------------------------------|

Chorus
D-------3----3---3-----3----3---0----3----3---3-----3----3---3---------|
A#-----4----4---4-----4----4---0----4----4---4-----4----4---4----------|
G----------------------------------------------------------------------|
D---------0----3---------0----3--------0----3---------0----3-----------|
G----0--------------0-------------3--------------3---------------------|
C----------------------------------------------------------------------|

D-------3----3---3-----3----3---3----3---3----3-----3----3---0---------|
A#-----4----4---4-----4----4---4----4---4----4-----4----4---0----------|
G----------------------------------------------------------------------|
D---------0----3---------0----3--------0----3---------0----3-----------|
G----3--------------3-------------3--------------3---------------------|
C----------------------------------------------------------------------|

D-------0----0---0-----0----0---0----0---0----0-----0----0---0---------|
A#-----0----0---0-----0----0---0----0---0----0-----0----0---0----------|
G----------------------------------------------------------------------|
D--------------0--------------3------------------0---------------------|
G---------3--------------3-------------5----3---------5----3-----------|
C----2--------------2-------------5------------------------------------|


D-------0----0---0-----0----0---0----0---0----0-----0----0----0--------|
A#-----0----0---0-----0----0---0----0---0----0-----0----0----0---------|
G--------------0--------------0----------------------------------------|
D---------0--------------0-------------0----3---------0-----3----------|
G----0--------------0-------------3--------------3---------------------|
C----------------------------------------------------------------------|


D-------0----0---0-----0----0---0----0---0----0-----0----0----0--------|
A#-----0----0---0-----0----0---0----0---0----0-----0----0----0---------|
G----------------------------------------------------------------------|
D--------------0--------------3-----------------------------0----------|
G---------3--------------3-------------3----5---------3----------------|
C----2--------------2-------------5--------------5---------------------|
Back to Intro/Verse (the intro/verse is played during the interlude)

D----------------------------------------------------------------------|
A#-----------------------0---------------------------------------------|
G----last notes played---0---------------------------------------------|
D----------------------------------------------------------------------|
G----------------------------------------------------------------------|
C----------------------------------------------------------------------|
Tap to rate this tab
# A B C D E F G H I J K L M N O P Q R S T U V W X Y Z