Song name
# A B C D E F G H I J K L M N O P Q R S T U V W X Y Z

Owen - Bags Of Bones tab

Owen-Bags of Bones
Record- At Home With Owen
Tuning: DADGAD

Capo on 2 (although not needed for this part, its how he plays it)

This is the intro/verse and such.

Guitar 1
D|--------------------------------|
A|--------------------------------|
G|--------------------------------|
D|------------------7-----7----7--|
A|---7p5h7p5h7p5----7-----7----7--|
D|-5--------------7-----9----7----|

Guitar 2
This doesn't sound Perfect, but its close.
D|-7-----------7-----------7----------------------|
A|------------------------------------------------|
G|---7--9--11----7--9--11-----7--9--11--9-11-9-7--|
D|------------------------------------------------|
A|------------------------------------------------|
D|------------------------------------------------|
Tap to rate this tab
# A B C D E F G H I J K L M N O P Q R S T U V W X Y Z