Song name
# A B C D E F G H I J K L M N O P Q R S T U V W X Y Z

Owl City - The Saltwater Room tab

-------------------------------------------------------------------------------
			     THE SALTWATER ROOM - Owl City
-------------------------------------------------------------------------------
Tabbed by: Jowell

Tuning: Standard Capo 5th

-This is waaaayy better than any other tabs I could find for this song. Enjoy:)

e|---------------------------------------|
B|--------3-------0-----------3-------0--|
G|------0---0---0-----------0---0---0----|
D|----2-------2-----------2-------2------|
A|--3-------------------3----------------|
E|---------------------------------------|

e|---------------------------------------|
B|----------------0----------------------|
G|--------2--------------------2-0-------|
D|------0---0---0------------0-----4-0---|
A|----2-------2------------2-----------2-|
E|--3--------------------3---------------|

e|---------------------------------------|
B|--------3-------0-----------3-------0--|
G|------0---0---0-----------0---0---0----|
D|----2-------2-----------2-------2------|
A|--3-------------------3----------------|
E|---------------------------------------|

e|---------------------------------------|
B|----------0-----------------3---0------|
G|------0-2---2-0-----------0---2---0----|
D|----2-----------2-------2--------------|
A|----------------------3----------------|
E|--0------------------------------------|
Tap to rate this tab
# A B C D E F G H I J K L M N O P Q R S T U V W X Y Z