Song name
# A B C D E F G H I J K L M N O P Q R S T U V W X Y Z

Owl City - Hello Seattle tab

E------------------------------------------------------|
B------------------------------------------------------|
G------------------------------------------------------|
D-----0-----------0---------------------------0--------|
A---1---3--1----1---3--1------------1--3---1------1----|
E-1----------3-----------1--------3--------------------|

This is what he sings for the majority of the song. The change is

E----------------------------------------------------|
B----------------------------------------------------|
G----------------------------------------------------|
D----------3----5---0--------------------------------|
A-3--1--------------------3--1------3----5-----------|
E-------3-----------------------3--------------3-----|

100% sure. Enjoy =)
Tap to rate this tab
# A B C D E F G H I J K L M N O P Q R S T U V W X Y Z