Song name
# A B C D E F G H I J K L M N O P Q R S T U V W X Y Z

Owl City - The Saltwater Room Acoustic tab

capo 5th fret

Riff
e|-------------------------------------|--------------------------------------|
B|--------3-------0----------3-------0-|----------------0---------------------|
G|------0---0---0----------0---0---0---|--------2-------------------2-0-------|
D|----2-------2----------2-------2-----|------0---0---0-----------0-----4-0---|
A|--3------------------3---------------|----2-------2----------2------------2-|
E|-------------------------------------|--3------------------3----------------|

e|-------------------------------------|--------0-----------------------------|
B|--------3-------0----------3-------0-|------0---0---0-3----------3---0------|
G|------0---0---0----------0---0---0---|----0-------0------------0---2---2-0--|
D|----2-------2----------2-------2-----|--2--------------------2--------------|
A|--3------------------3---------------|---------------------3----------------|
E|-------------------------------------|--------------------------------------|



Chorus
e|-------------------------------------|--------------------------------------|
B|-------------------------------------|--------------------------------------|
G|-------------------------------------|--------------------------------------|
D|--0-0-0-0--2-2-2-2-------------------|--0-0-0-0--2-2-2-2--------------------|
A|--------------------3-3-3-3----------|-----------------------------3-3-3-3--|
E|-----------------------------3-3-3-3-|--------------------3-3-3-3-----------|



outro
e|-------------------------------------|--------------------------------------|
B|-------------------------------------|--------------------------------------|
G|----0---0-1/4-0-------0---0-1/4-0----|----0---------------0-----------------|
D|--2---2-------------2---2------------|--2---2-0---0-----2---2-0-------------|
A|-------------------------------------|----------2---------------3-2---------|
E|-------------------------------------|------------------------------3-------|

e|-------------------------------------|--------------------------------------|
B|-------------------------------------|--------------------------------------|
G|----0---0-1/4-0-------0---0-1/4-0----|--------------------------------------|
D|--2---2-------------2---2------------|----0---0-1/4-0-------0---------------|
A|-------------------------------------|--2---2-------------3---3-2-0-2-0-----|
E|-------------------------------------|----------------------------------3---|

riffx5
chorusx2
riffx2
chorusx4
outrox3
Tap to rate this tab
# A B C D E F G H I J K L M N O P Q R S T U V W X Y Z