Song name
# A B C D E F G H I J K L M N O P Q R S T U V W X Y Z

Owl City - Fuzzy Blue Lights tab

    
--------------------------------------------------------------------------
 			Fuzzy Blue Lights- Owl City 
--------------------------------------------------------------------------

Tabbed by: Daniel Chevalier
Email:purplemunkyman@hotmail.com

Owl City is the best part of my life.
Tuning: Eadgbe

Capo on the 2nd fret.

Guitar 1 Intro
e|--------4-------4----------------------------------------------------------|
B|-----5-5-5-5-5-5-5-5-------------------------------------------------------|
G|----4-4---4-2-2---2--------------------------------------------------------| x 4
D|---------------------------------------------------------------------------|
A|---------------------------------------------------------------------------|
E|---------------------------------------------------------------------------|

Guitar 2 Intro 

e|----0------0---------------------------------------------------------------|
B|----0------0---------------------------------------------------------------|
G|----1------2---------------------------------------------------------------| x 2
D|----2------2---------------------------------------------------------------|
A|----2------0---------------------------------------------------------------|
E|----0------0---------------------------------------------------------------|

Verse x2    

    “If I could look across the country..”
e|---00000000-00000000-00000000-00000000-------------------------------------|
B|---00000000-00000000-00000000-00000000-------------------------------------|
G|---99999999-44444444-66666666-22222222-------------------------------------| x 2 
D|---99999999-44444444-66666666-22222222-------------------------------------|
A|---77777777-22222222-44444444-00000000-------------------------------------|
E|---xxxxxxxx-xxxxxxxx-xxxxxxxx-00000000-------------------------------------|

     “All those rather dreary rainclouds..”
e|---00000000-00000000-00000000-00000000-------------------------------------|
B|---00000000-00000000-00000000-00000000-------------------------------------|
G|---44444444-66666666-22222222-11111111-------------------------------------| x 2
D|---44444444-66666666-22222222-22222222-------------------------------------|
A|---22222222-44444444-00000000-22222222-------------------------------------|
E|---xxxxxxxx-xxxxxxxx-00000000-00000000-------------------------------------|

Intro x 1


Chorus (This part is a little iffy, I found, however, that this fit the best)

    “If I was standing on a balcony..”
e|---0000-00-00-0000-00-00-0000-00-00-0000-0000------------------------------|
B|---0000-00-00-0000-00-00-0000-00-00-0000-0000------------------------------|
G|---6666-11-44-6666-11-44-6666-11-44-6666-4444------------------------------|
D|---6666-22-44-6666-22-44-6666-22-44-6666-4444------------------------------|
A|---4444-22-22-4444-22-22-4444-22-22-4444-2222------------------------------|
E|---xxxx-00-xx-xxxx-00-xx-xxxx-00-xx-xxxx-xxxx------------------------------|

    



    “If you were swinging from a highway overpass..”
e|---0000-00-00-0000-00-00-0000-00-00-0000-0000------------------------------|
B|---0000-00-00-0000-00-00-0000-00-00-0000-0000------------------------------|
G|---6666-11-44-6666-11-44-6666-11-44-2222-4444------------------------------|
D|---6666-22-44-6666-22-44-6666-22-44-2222-4444------------------------------|
A|---4444-22-22-4444-22-22-4444-22-22-0000-2222------------------------------|
E|---xxxx-00-xx-xxxx-00-xx-xxxx-00-xx-0000-xxxx------------------------------|

Verse x 1

Intro x 1

Chorus until the end.



| /  slide up
| \  slide down
| h  hammer-on
| p  pull-off
| ~  vibrato
| +  harmonic
| x  Mute note
===============================================================================
Tap to rate this tab
 
# A B C D E F G H I J K L M N O P Q R S T U V W X Y Z