Song name
# A B C D E F G H I J K L M N O P Q R S T U V W X Y Z

Owl City - The Technicolor Phase chords

Highlighted       Show chord diagrams
-----------------------------------------------------------------------------
			     The Technicolor Phase Ė Owl City - Maybe I'm Dreaming
-----------------------------------------------------------------------------
Tabbed by: hockeyamh	
Email: hockeyamh@sbcglobal.net

Tuning: Standard

Capo 3

This is a great song off of Owl Cityís first album, Maybe Iím Dreaming, 
and itís a great sounding song acoustic. If you have any comments or
suggestions, feel free to leave them here or e-mail me. Hope this works 
for you!

    G	     D/F#        Em        Cadd9

e|--3---------3----------3----------3---------------------------------------|
B|--3---------3----------3----------3---------------------------------------|
G|------------2-------------------------------------------------------------|
D|-----------------------2----------2---------------------------------------|
A|--2--------------------2----------3---------------------------------------|
E|--3---------2----------0----------x---------------------------------------|

G                    D/F#	
I am the red in the rose, the flowers
       Em		        Cadd9
on the blankets on your bedroom floor.
   G		         D/F#	  
And I am the gray in the ghost that hides
          Em			     Cadd9
with your clothes behind your closet door.

G		       D/F#
I am the green in the grass that bends back
    Em		     Cadd9
from underneath your feet.
    G 		            D/F#
And I am the blue in your back alley view
 	    Em			   Cadd9
where the horizon and the rooftops meet.

Break: Em, G 4x *(not sure about this, but it sounds fine and works for me when I play)

Cadd9   G       Em
If you cut me I suppose I would bleed 
    Cadd9         G       D/F#
the colors of the evening stars.
Cadd9    G     Em                          Cadd9   G          D/F#
You can go anywhere you wish cause I'll be there, wherever you are. 

Cadd9		    Em	  D/F#		
(I will always be your keys
     Cadd9          	  Em           D/F#
when we are lost in the technicolor phase)

G		      D/F#
I am the black in the book
                   Em			  Cadd9	     
the letters on the pages that you memorize.
    G			     D/F#
And I am the orange in the overcast
   Em	           Cadd9
of color that you visualize.

G	 	      D/F#
I am the white in the walls that soak up
        Em	 	       Cadd9
all the sound when you cannot sleep.
G		           D/F#
And I am the peach in the starfish on the beach
              Em		  Cadd9 
that wish the harbor wasn't quite so deep.

Break: Em, G *

Cadd9   G       Em
If you cut me I suppose I would bleed 
    Cadd9         G       D/F#
the colors of the evening stars.
Cadd9    G     Em                          Cadd9   G          D/F#
You can go anywhere you wish cause I'll be there, wherever you are.
Tap to rate this tab
# A B C D E F G H I J K L M N O P Q R S T U V W X Y Z