Song name
# A B C D E F G H I J K L M N O P Q R S T U V W X Y Z

Owl City - On The Wing tab

Tabbed by Jharper
Tuning: D
Please note that the guitar is supposed to create a harmony with the piano not be the exact notes.
Intro
e|------------|
B|------------|
G|------------|x8
D|-8-1-5-1----|
A|-8-1-5-1----|
D|-8-1-5-1----|
Comes In:
e|--------------------------|   e|----------------------------|
B|--------------------------|   B|----------------------------|
G|-------------5-----7------|   G|-------------5-----7-10-5---|
D|-----8-----8---8-----8----|x4 D|-----8-----8---8----------8-|
A|-5-8---6-8-------8-----8--|   A|-5-8---6-8-------8----------|
D|--------------------------|   D|----------------------------|
Verse:
e|---------------------|                    e|-----|
B|---------------------|                    B|-----| 
G|---------------------|                    G|-----|
D|-8-3-10-1-8-3-10-1-3-|x2 Then strum this: D|-5-1-|
A|-8-3-10-1-8-3-10-1-3-|                    A|-5-1-|
D|-8-3-10-1-8-3-10-1-3-|                    D|-5-1-|      

Intro(B)
e|------------|
B|------------|
G|------------|x4
D|-8-1-5-1----|
A|-8-1-5-1----|
D|-8-1-5-1----|
Piano Part
e|--------------------------|   e|----------------------------|
B|--------------------------|   B|----------------------------|
G|-------------5-----7------|   G|-------------5-----7-10-5---|
D|-----8-----8---8-----8----|x3 D|-----8-----8---8----------8-|
A|-5-8---6-8-------8-----8--|   A|-5-8---6-8-------8----------|
D|--------------------------|   D|----------------------------|
Verse 2
e|----------------------------------------------------------|
B|----------------------------------------------------------|
G|----------------------------------------------------------|
D|-8-3-10-1-8-3-10-1-8-3-10-1-8-3-10-1-8-3-10-1-3-5-1-------|
A|-8-3-10-1-8-3-10-1-8-3-10-1-8-3-10-1-8-3-10-1-3-5-1-------|
D|-8-3-10-1-8-3-10-1-8-3-10-1-8-3-10-1-8-3-10-1-3-5-1-------|
Chorus(B)
e|-------------------------------------------------------|
B|-------------------------------------------------------|
G|-------------------------------------------------------|
D|-1-8-3-1-8-3-1-8-3-5-1-8-3-1-8-3-1-8-3-1-8-3-5-1-8-3---|
A|-1-8-3-1-8-3-1-8-3-5-1-8-3-1-8-3-1-8-3-1-8-3-5-1-8-3---|
D|-1-8-3-1-8-3-1-8-3-5-1-8-3-1-8-3-1-8-3-1-8-3-5-1-8-3---|
Piano Partx2
e|-----------------------------------------------------|
B|-----------------------------------------------------|
G|-------5-----5-----5-----------5------------10-5-----|
D|-----8---8-----8-----8-------8---8---7-8-10------8---|
A|-6-8-------8-----8-----8-6-8-------8-----------------|
D|-----------------------------------------------------|

e|-------------------------------------------------------|
B|-------------------------------------------------------|
G|-------5-----------7-----------5---------5-7-10-5------|
D|-----8---8---7-8-5---8-------8---8-5---8----------8----|
A|-6-8-------8-----------8-6-8---------8-----------------|
D|-------------------------------------------------------|
Breakdown/Solo
e|---------------------------------------|
B|---------------------------------------|
G|---------------------------------------|
D|-10-8-3-1-8-5-3-10-8-3-1-3-5-8-1-8-3---|
A|-10-8-3-1-8-5-3-10-8-3-1-3-5-8-1-8-3---|x2
D|-10-8-3-1-8-5-3-10-8-3-1-3-5-8-1-8-3---|
Piano Comes In
e|----------------------------------------------------18-17---------|
B|-13-11----13-11----13-11----15-11----13-11----15-18-------18-13---|
G|-------10-------10-------10-------10-------10---------------------|
D|------------------------------------------------------------------|
A|------------------------------------------------------------------|
D|------------------------------------------------------------------|
Solo
e|-------------------------------------------------------------------------------|
B|----13-11----13-11----15-11----13-11-------11-15-13-18----15-13-11----11-13----|
G|-10-------10-------10-------10-------10-12-------------12----------10-------10-|
D|-------------------------------------------------------------------------------|
A|-------------------------------------------------------------------------------|
D|-------------------------------------------------------------------------------|

e|----------------------------------------------------18-17-------------------|
B|-13-11----13-11----13-11----15-11----13-11----15-18-------18-17-13-10-------|
G|-------10-------10-------10-------10-------10-------------------------10----|
D|-------------------------------------------------------------------------10-|
A|----------------------------------------------------------------------------|
D|----------------------------------------------------------------------------|
Interlude
e|--------------------------|   e|----------------------------|
B|--------------------------|   B|----------------------------|
G|-------------5-----7------|   G|-------------5-----7-10-5---|
D|-----8-----8---8-----8----|x5 D|-----8-----8---8----------8-|
A|-5-8---6-8-------8-----8--|   A|-5-8---6-8-------8----------|
D|--------------------------|   D|----------------------------|
Strumming comes in
e|------------|
B|------------|
G|------------|x4
D|-8-1-5-1----|
A|-8-1-5-1----|
D|-8-1-5-1----|
Chorus(B2) Play til it fades.
e|-----------------------------------------------------|
B|-----------------------------------------------------|
G|-------5-----5-----5-----------5------------10-5-----|
D|-----8---8-----8-----8-------8---8---7-8-10------8---|
A|-6-8-------8-----8-----8-6-8-------8-----------------|
D|-----------------------------------------------------|

e|-------------------------------------------------------|
B|-------------------------------------------------------|
G|-------5-----------7-----------5---------5-7-10-5------|
D|-----8---8---7-8-5---8-------8---8-5---8----------8----|
A|-6-8-------8-----------8-6-8---------8-----------------|
D|-------------------------------------------------------|
Strumming
e|-------------------------------------------------------|
B|-------------------------------------------------------|
G|-------------------------------------------------------|
D|-1-8-3-1-8-3-1-8-3-5-1-8-3-1-8-3-1-8-3-1-8-3-5-1-8-3---|
A|-1-8-3-1-8-3-1-8-3-5-1-8-3-1-8-3-1-8-3-1-8-3-5-1-8-3---|
D|-1-8-3-1-8-3-1-8-3-5-1-8-3-1-8-3-1-8-3-1-8-3-5-1-8-3---|

Well that's all. Hope it sounds ok. Enjoy!
Tap to rate this tab
 
# A B C D E F G H I J K L M N O P Q R S T U V W X Y Z