Song name
# A B C D E F G H I J K L M N O P Q R S T U V W X Y Z

Owl City - Fireflies tab

Now first off i know this tab isn't completely right but its by ear,
its kinda hard to tab something that fast by ear, i did the best i could,
but if you play it on a good clean channel with some delay it sounds pretty good,
nobody would know the difference if you dont play it along with the song. Enjoy

please rate and comment:)

e------------------------------------------------------------------------|
B------15----------------------------------------------------------------|
G------------15---------------15-----------------------------------------|
D----15----15---13-13-15-13-15--------10-----13-----10-----13-10-13-15---|
A-13-----13----------------------11-11--11-11--11-11--11-11--------------|
E------------------------------------------------------------------------|

e------------------------------------------------------------------------|
B------15----------------------------------------------------------------|
G------------15------------13-12-----------------------------------------|
D----15----15---13-13-15-13-----15-13-----10--13--10--13-10-13-15--------|
A-13-----13--------------------------11-11--11--11--11-------------------|
E------------------------------------------------------------------------|
Tap to rate this tab
 
# A B C D E F G H I J K L M N O P Q R S T U V W X Y Z