Song name
# A B C D E F G H I J K L M N O P Q R S T U V W X Y Z

Owl City - Meteor Shower tab

Meteor Shower By Owl City 
Tabbed by Norma Daneu

standard tuning
no capo
Intro : 


e|-------5---1--------5-----1--------------------3--------1---3-----------------------|
B|--------------1---------------3----1-------1--------3-------------------------------|
G|----------------------------------------2-------------------------------------------|
D|------------------------------------------------------------------------------------|
A|------------------------------------------------------------------------------------|
E|------------------------------------------------------------------------------------|


e|-------5---1--------5-----1------------------------1-------8-----3------------------|
B|--------------1---------------3----1------------------------------------------------|
G|-----------------------------------------2------------------------------------------|
D|------------------------------------------------------------------------------------|
A|------------------------------------------------------------------------------------|
E|------------------------------------------------------------------------------------|




e|-------5----1---3----1-----5----1---3---1-----------------------------3---8---3-----|
B|------------------------1-------------------3------1----------1---1-----------------|
G|------------------------------------------------------2---0-------------------------|
D|------------------------------------------------------------------------------------|
A|------------------------------------------------------------------------------------|
E|------------------------------------------------------------------------------------|




e|-------5----1---3----1--------5----1---3---1-------------------------------8---3----|
B|--------------------------1----------------------3---1---3--------1---1--3----------|
G|------------------------------------------------------------2---------------------- |
D|------------------------------------------------------------------------------------|
A|------------------------------------------------------------------------------------|
E|------------------------------------------------------------------------------------|

Tap to rate this tab
 
# A B C D E F G H I J K L M N O P Q R S T U V W X Y Z