Song name
# A B C D E F G H I J K L M N O P Q R S T U V W X Y Z

Owl City - Fireflies tab

Ez song to learn and fun to play
played in clean with delay


e|-------10-----------------------------------------------------------------|
B|--------------11-------------11-------------------------------------------|
G|----10------10---8-8-10-8-10--------------------8------------------8--10--|
D|--8-------8----------------------6--8--10-8--10---6--8--10--8---10--------|
A|--------------------------------------------------------------------------|
E|--------------------------------------------------------------------------|

e|-------10---------------------------------------------------------|
B|---------------11----------9p8------------------------------------|
G|----10------10----8-8-10-8-----8--------------8-------------8-10--|
D|--8-------8----------------------8--8-10-8-10---6-8-10-8-10-------|
A|------------------------------------------------------------------|
E|------------------------------------------------------------------|

************************************

| /   slide up
| \   slide down
| h   hammer-on
| p   pull-off
| ~   vibrato
| +   harmonic
| x   Mute note
| b   Bend
| pb  Pre-bend
| br  Bend release
| pbr Pre-bend release
| brb Bend release bend

************************************
Tap to rate this tab
# A B C D E F G H I J K L M N O P Q R S T U V W X Y Z