Song name
# A B C D E F G H I J K L M N O P Q R S T U V W X Y Z

Owl City - Hot Air Balloon tab

Hot Air Balloon
Owl City

Capo 1st fret (important)

Hey, so this is the intro part to Hot Air Balloon,
By Owl City. It's a great song, but i noticed
there weren't any tabs anywhere for the intro,
so here goes. It is my first tab, so go easy on me.

Intro (0-9 seconds)

C#			G#			Am#			F#

E --------------3-------5-------1-----|
A -3----------------------------------|
D ------------------------------------|
G ------------------------------------|
B --1-3-1---------------------------3-|
e -0------0-3---3-5-7---8-7-5---1-0---|

Repeat twice

Then... (10-19 seconds)

C#			G#		Am#		F#
E ----------3-3------------1-1---------|
A -3--3-3---2-2---0--0-0---3-3---------|
D -2--2-2---0-0---2--2-2---3-3---------|
G -0--0-0---0-0---2--2-2---2-2---------|
B -1--1-1---3-3---1--1-1---1-1---------|
e -0--0-0---3-3---0--0-0---1-1---------|

Repeat twice

This part is not only for the intro, but the verse
and the chorus... So basically the whole song!

Thats really all that there is too the whole song,
except some fingerpicking, which is all based
on the C# G# Am# F# progression.


ChipmunkChief
Tap to rate this tab
# A B C D E F G H I J K L M N O P Q R S T U V W X Y Z