Song name
# A B C D E F G H I J K L M N O P Q R S T U V W X Y Z

Owl City - Vanilla Twilight tab


e[-------------------------------------------]
B[--------------14-------------17-16-14------]
G[--11s13-16-13----11-13-16-13----------16---]
D[-------------------------------------------]
A[-------------------------------------------]
E[-------------------------------------------]

e[-------------------------------------------]
B[--------------14----16-16------------------]
G[--11s13-16-13----13-------13--11s13-16-13--]
D[-------------------------------------------]
A[-------------------------------------------]
E[-------------------------------------------]

e[-------------------------------------------]
B[--14-------------17-16-14------------------]
G[-----11-13-16-13----------16--11S13-16-13--]
D[-------------------------------------------]
A[-------------------------------------------]
E[-------------------------------------------]

e[-------------------------------------------]
B[--14----16------14-------------------------]
G[-----13---13h16----------------------------]
D[-------------------------------------------]
A[-------------------------------------------]
E[-------------------------------------------]

This is the cool keyboard thing.  A friend of mine wanted me to learn the song so I 
to it a min. ago and this is what I have for that part. Feel free to change it. Tabbed by 
Mertens
Tap to rate this tab
# A B C D E F G H I J K L M N O P Q R S T U V W X Y Z