Song name
# A B C D E F G H I J K L M N O P Q R S T U V W X Y Z

Owl City - Meteor Shower tab

----------------------------------------------------------------------------
			   METEOR SHOWER - Owl City
----------------------------------------------------------------------------
Tabbed by: 2guitargod4 (SAM)
Email: sam.rocks.123@hotmail.com

Tuning: Standard (EADGBe)

PIANO
e|-5--------5---------------------------------|
B|---6--------6---------------8--------6-8----|
G|-----5--------7-5---------5-------7---------|
D|------------------------7-------------------|
A|--------------------------------------------|
E|--------------------------------------------|

e|-5-------5-----------------8------|
B|---6--------6------------6---8----|
G|-----5--------7-5-----------------|
D|--------------------7-------------|
A|----------------------------------|
E|----------------------------------|

e|-5------------5--------------------------8--------|
B|---6-8--6-------6-8--6-----------------6---8------|
G|----------5------------7--5-------5--5------------|
D|----------------------------7-5-------------------|
A|--------------------------------------------------|
E|--------------------------------------------------|

e|-5-----------5--------------------------8---------|
B|---6-8--6------6-8--6---6-----------------8-------|
G|----------5-----------7---5-7----5--5-7-----------|
D|------------------------------7-------------------|
A|--------------------------------------------------|
E|--------------------------------------------------|

  VOICE

e|-------------------------5------------------------------------------------|
B|-11-8-10-6-6/8---8-6---6---8-6----------6-8-6-----------------------------|
G|---------------------7----------------7-------5--\---5-7-5-9-5-9/10--\----|
D|--------------------------------------------------------------------------|
A|--------------------------------------------------------------------------|
E|--------------------------------------------------------------------------|
   i can ....     that your......       i am not...    for i have....

e|--------------------------5-----------------------------------------------|
B|----6-8-6---------------6---8-6\\\----------------------------------------|
G|--7-------5--\------5-7---------------------------------------------------|
D|--------------------------------------------------------------------------|
A|--------------------------------------------------------------------------|
E|--------------------------------------------------------------------------|
   please dont...     i desperatly....

   SYNTH FILL

e|-18-15-18-17----------|
B|-------------18-------|
G|----------------------|
D|----------------------|
A|----------------------|
E|----------------------|

   PIANO
e|------------5--------------------------8-------5----------5---------------|
B|-8-6-8-6------6-8--6---6-------------6---8-------6-8-6------6-8-6---6-----|
G|---------5-----------7----5------5-5-------------------5----------7-------|
D|----------------------------7-5-------------------------------------------|
A|--------------------------------------------------------------------------|
E|--------------------------------------------------------------------------|

e|----------------8-------|
B|--------------6---8-----|
G|-5--7-----5-5-----------|
D|------7-----------------|
A|------------------------|
E|------------------------|

repeat from i am not.... and finish at, i desperatly need you...
Cool Song enjoy
************************************

| /   slide up
| \   slide down
| h   hammer-on
| p   pull-off
| ~   vibrato
| +   harmonic
| x   Mute note
| b   Bend
| pb  Pre-bend
| br  Bend release
| pbr Pre-bend release
| brb Bend release bend

************************************
Tap to rate this tab
 
# A B C D E F G H I J K L M N O P Q R S T U V W X Y Z