Song name
# A B C D E F G H I J K L M N O P Q R S T U V W X Y Z

Owl City - Hello Seattle tab

This is a higher pitch of one of the 
It blends more with Adam's voice. Enjoy :)

e------------------------------------------------------|
B--------3-1-------3-1------------1---3----------------|
G------3-----3-0-3-----3------0-3---3---3--------------|
D----3-------------------3-----------------------------|
A------------------------------------------------------|
E------------------------------------------------------|

e------------------------------------------------------|
B----1-----6-8---1------1-3----------------------------|
G------3-0-----7---3-0------0--------------------------|
D------------------------------------------------------|
A------------------------------------------------------|
E------------------------------------------------------|
Tap to rate this tab
# A B C D E F G H I J K L M N O P Q R S T U V W X Y Z