Song name
# A B C D E F G H I J K L M N O P Q R S T U V W X Y Z

Owl City - Sunburn tab

e|---0---1---3---1---0------------------------------------------------------|
B|-----------------------3---0---0---1---------------1-----------1----------|
G|---------------------------------------0-------0-----------0--------------|
D|-------------------------------------------------------------------3------|
A|---3---------------------------------------------------0------------------|
E|-------------------------------------------3------------------------------|

e|---0---1---3---1---0------------------------------------------------------|
B|-----------------------3---0---0---1---------------1-----------1----------|
G|---------------------------------------0-------0-----------0--------------|
D|-------------------------------------------------------------------3------|
A|---3---------------------------------------------------0------------------|
E|-------------------------------------------3------------------------------|


                                                                  ballyrocks~
Tap to rate this tab
# A B C D E F G H I J K L M N O P Q R S T U V W X Y Z