Song name
# A B C D E F G H I J K L M N O P Q R S T U V W X Y Z

Owl City - Fireflies tab

first tab made. All done by ear so dont complain that its not accurate. 
corrections would help if u post them in the comments. thanks.

|-10-----------------------------------------------------|
|--11------------11--------------------------------------|
|---12-10h12-10h12----------------10----------------12---|
|------------------13--10h12-10h12-----10h12p10-12h14----|
|-----------------------------------13-------------------|
|--------------------------------------------------------|

|-10-----------------------------------------------------|
|--11----------11----------------------------11----------|
|---12-10h12p10--12-10---12--10--12-12-10--12------------|
|---------------------13---------------------------------|
|--------------------------------------------------------|
|--------------------------------------------------------|


h= hammer on  
p= pull off


That's the basic intro.
Tap to rate this tab
 
# A B C D E F G H I J K L M N O P Q R S T U V W X Y Z