Song name
# A B C D E F G H I J K L M N O P Q R S T U V W X Y Z

Owl City - Sunburn tab

-------------------------------------------------------------------------------
			 SUNBURN [Intro] - Owl City
-------------------------------------------------------------------------------
Tabbed by: aditwhatever
Email: perdanaputraaditya [at] gmail.com (replace [at] w/ the @ symbol)

Tuning: standard

An innocent, cheerful song, as always, by the synthpop solo.

It's basically an improvement over the previous intro tab of the song. And this is my
tabbing by ear (and my first tabbing in general), so corrections and comments would be
much appreciated (especially for the natural harmonics part). But please, take it easy 
the noob! Thank you!

e|------------------------------------------------------------x-+------------|
B|---------------8-------------0---8--------------1-----1-----x-+------------|
G|----------7/9-----9\7\5-----------------------0-----0-------x-+------------|
D|-------------------------7/9---9------5---------------------x-+------------|
A|--------------------------------------------------0---------x-+------------|
E|--------------------------------------------3-----------1---x-+------------|

e|------------------------------------------------------------3--------------|
B|---------------8-------------0---8--------------1-----1-----1--------------|
G|----------7/9-----9\7\5-----------------------0-----0-------2--------------|
D|-------------------------7/9---9------5---------------------3--------------|
A|--------------------------------------------------0------------------------|
E|--------------------------------------------3-----------1------------------|

************************************
| /   slide up
| \   slide down
| +   harmonic (haven't figured out which fret this is yet)
| x   mute note
************************************
Tap to rate this tab
# A B C D E F G H I J K L M N O P Q R S T U V W X Y Z