Song name
# A B C D E F G H I J K L M N O P Q R S T U V W X Y Z

Owl City - Rainbow Veins tab

Chorus

e -x--x-x--x--x--x-x--x-|
B -x--x-x--x--x--x-x--x-|
G -5--5-5--5--5--5-5--5-|
D -5--5-5--5--5--5-5--5-|
A -3--3-3--3--3--3-3--3-|
E -x--x-x--x--x--x-x--x-|


e -x--x-x--x--x--x-x--x-|
B -x--x-x--x--x--x-x--x-|
G -x--x-x--x--x--x-x--x-|
D -7--7-7--7--7--7-7--7-|
A -7--7-7--7--7--7-7--7-|
E -5--5-5--5--5--5-5--5-|

e -x--x-x--x--x--x-x--x-|
B -x--x-x--x--x--x-x--x-|
G -7--7-7--7--7--7-7--7-|
D -7--7-7--7--7--7-7--7-|
A -5--5-5--5--5--5-5--5-|
E -x--x-x--x--x--x-x--x-|

e -x--x-x--x--x--x-x--x-|
B -x--x-x--x--x--x-x--x-|
G -x--x-x--x--x--x-x--x-|
D -7--7-7--7--5--5-5--5-|
A -7--7-7--7--5--5-5--5-|
E -5--5-5--5--3--3-3--3-|

solo:

e -0--3---3/5---5/7-----|
B ----------------------|
G ----------------------|
D ----------------------|
A ----------------------|
E ----------------------|    x4

e -0--5--6--7---8-------|
B ----------------------|
G ----------------------|
D ----------------------|
A ----------------------|
E ----------------------|      x4
Tap to rate this tab
 
# A B C D E F G H I J K L M N O P Q R S T U V W X Y Z