Song name
# A B C D E F G H I J K L M N O P Q R S T U V W X Y Z

Owl City - Fireflies tab

You will need at least a 22 fret guitar for this, any lower and you will not be
able to hit the notes

Intro/Verse
E|---18-----18-----------------------------16---------------------16---------|
A|--------------------18---------------------------------------18------------|
D|------20------20---------------------------------------------------18/s\22-|
G|--------------------------------------------17/p\15--17/s\20---------------|
B|-----------------18-----18/p\16--18----------------------------------------|
e|---------22-------------------------18-------------------------------------|

E|------20-----------18---------------------------------------------------|
A|---------------------------20-------18-------------------------11-------|
D|/s\20----20-----------20------20----------------------------------13----|
G|------------20--22---------------------------------------------------12-|
B|---------------------------------------16/s\18/s\16----16/s\11----------|
e|-------------------------22------18-----------------15------------------|

E|-----------------------------------|
A|--11-------11-----------11---------|
D|-----13-------13-------------------|
G|-----------------------------------|
B|--------11-------13/p\11---11/h\13-|
e|-----------------------------------|

1st Chorus (Bar Chords):

Af          Ef          Bf
I'd like to make myself believe

     Af     Ef           Gm
That planet earth turns, slowly

     Af               Ef              Af    Bf   Cm
It's hard to say that I'd rather stay awake when I'm asleep

Af            Ef          F7
Everything is never as it seems


REPEAT VERSE RIFF

Chorus 2:

Af          Ef          Bf
I'd like to make myself believe

     Af     Ef           Gm
That planet earth turns, slowly

     Af               Ef              Af    Bf   Cm
It's hard to say that I'd rather stay awake when I'm asleep

Af            Ef          Bf
Everything is never as it seems


Pre Verse (he plays this before the 2nd verse, so ya)

E|----------------------------|
A|----------------------------|
D|----------------------------|
G|---13/s\17/s\15--15---------|
B|--------------------16/s\18-|
e|----------------------------|
Tap to rate this tab
 
# A B C D E F G H I J K L M N O P Q R S T U V W X Y Z