Song name
# A B C D E F G H I J K L M N O P Q R S T U V W X Y Z

Owl City - Sunburn tab

-------------------------------------------------------------------------------
			     Sunburn - Owl City
-------------------------------------------------------------------------------
Tabbed by: tayson915


Tuning: EADGBe (Standard)

e|------------3--------------------------------------------------------------------|
B|---3h---5-------5p---3------------------------------------1-----------1----------|
G|-------------------------5p---0---0---5---4---0-------0-----------0--------------|   (x2)
D|--------------------------------------------------------------------------3------|
A|--------------------------------------------------------------0------------------|
E|--------------------------------------------------3------------------------------|


************************************

| /   slide up
| \   slide down
| h   hammer-on
| p   pull-off
| ~   vibrato
| +   harmonic
| x   Mute note
| b   Bend
| pb  Pre-bend
| br  Bend release
| pbr Pre-bend release
| brb Bend release bend

************************************
Tap to rate this tab
 
# A B C D E F G H I J K L M N O P Q R S T U V W X Y Z