Song name
# A B C D E F G H I J K L M N O P Q R S T U V W X Y Z

Owl City - Hot Air Balloon tab

-------------------------------------------------------------------------------
			     Hot Air Balloon - Owl City
-------------------------------------------------------------------------------
Tabbed by: Jason Hendrick
Email: J-hendrick@live.com

Okay, theres already a tab on this, but its got chords in it.
Not everyone knows them, so I wrote this. And I think this one sounds correct.

Tuning: Standard w/ capo on 2nd fret.

e|---------------------------------------------------------------------------|
B|---------------------------------------------------------------------------|
G|-----7----7----7-----------------5---5---5---------------------------------|
D|-----7----7----7---7-7----7------5---5---5----5-5-----5--------------------|   2x
A|-----5----5----5---7-7----7------3---3---3----5-5-----5--------------------|
E|-------------------5-5----5-------------------3-3-----3--------------------|

e|---------------------------------------------------------------------------|
B|---------3--------3------3-------------------------------------------------|
G|------2----2--------2------2-----------------------------------------------|    16x
D|----0----------------------------------------------------------------------|
A|---------------------------------------------------------------------------|
E|---------------------------------------------------------------------------|

e|---------------------------------------------------------------------------|
B|---------------------------------------------------------------------------|
G|----7----7----7-----------------5---5---5----------------------------------|
D|----7----7----7---7-7----7------5---5---5----5-5-----5---------------------|   4x
A|----5----5----5---7-7----7------3---3---3----5-5-----5---------------------|
E|------------------5-5----5-------------------3-3-----3---------------------|

e|------0h2/5~---------------------------------------------------------------|
B|------------------2---3~-------------------------3---5p3~------------------|
G|---------------------------------------------------------------------------|
D|--0--------------------------0h2h4h5/7-------------------------------------|
A|-----------------------------------------------0---------------------------|
E|---------------------------------------------------------------------------|

e|------0h2/5~------------------------------------------3--------------------|
B|------------------2---3~------------------------------3--------------------|
G|---------------------------------------------------2-----------------------|
D|--0-------------------------0h2p0h2p0--------------------------------------|
A|---------------------------------------------------------------------------|
E|---------------------------------------------------------------------------|


e|------0h2/5~---------------------------------------------------------------|
B|------------------2---3~------------------------3---5p3~-------------------|
G|---------------------------------------------------------------------------|
D|--0--------------------------0h2h4h5/7-------------------------------------|
A|----------------------------------------------0----------------------------|
E|---------------------------------------------------------------------------|

e|------0h2/5~-------------------------------------------3-------------------|
B|------------------2---3~-------------------------------3-------------------|
G|---------------------------------------------------2-----------------------|
D|--0-------------------------0h2p0h2p0--------------------------------------|
A|---------------------------------------------------------------------------|
E|---------------------------------------------------------------------------|


e|---------------------------------------------------------------------------|
B|---------3--------3------3-------------------------------------------------|
G|------2----2--------2------2-----------------------------------------------|    8x
D|----0----------------------------------------------------------------------|
A|---------------------------------------------------------------------------|
E|---------------------------------------------------------------------------|

e|---------------------------------------------------------------------------|
B|---------------------------------------------------------------------------|
G|-----7----7----7-----------------5---5---5---------------------------------|
D|-----7----7----7---7-7----7------5---5---5----5-5-----5--------------------|   4x
A|-----5----5----5---7-7----7------3---3---3----5-5-----5--------------------|
E|-------------------5-5----5-------------------3-3-----3--------------------|


************************************

| /   slide up
| h   hammer-on
| p   pull-off


************************************
Tap to rate this tab
 
# A B C D E F G H I J K L M N O P Q R S T U V W X Y Z