Owl City - The Saltwater Room tab

-------------------------------------------------------------------------------
			     The Saltwater Room - Owl City
-------------------------------------------------------------------------------
Tabbed by: MikeDPGuitar
Email: mikerailey8@gmail.com

Tuning: Standard, No capo

Main Riff:
e|-------3-------0-------3-------0---------------0---------------------------|
B|-----1---1---1-------1---2---2---------3-----3---------3-1-0---------------|
G|---2-------2-------2-------1---------0---0-----------0-------0-------------|
D|-3---------------3-----------------2-------2-------2-----------2-----------|
A|---------------------------------3---------------3-------------------------|
E|---------------------------------------------------------------------------|

e|-------3-------0-------3-------0-------7-----7-8-------7-----7-8-----------|
B|-----1---1---1-------1---2---2-------5---5-----------5---5-----------------|
G|---2-------2-------2-------1-------5-------5-------5-------5---------------|
D|-3---------------3---------------7---------------7-------------------------|
A|---------------------------------------------------------------------------|
E|---------------------------------------------------------------------------|

Fill on 4th quarter of main riff:
e|----7-------12-------15---------|
B|--------------------------------|
G|--------------------------------|
D|--------------------------------|
A|--------------------------------|
E|--------------------------------|

Interlude, female vocals solo
e|---------------------------------------------------------------------------|
B|---------------------------------------------------------------------------|
G|----5---5-7/9---5-----5---5-7/9---5-----5---------------5------------------|
D|-/7---7------------/7---7------------/7---7-5-----5--/7---7-5-3p2----------|
A|----------------------------------------------7-------------------3--------|
E|---------------------------------------------------------------------------|

e|---------------------------------------------------------------------------|
B|---------------------------------------------------------------------------|
G|----5---5-7/9---5-----5---5-7/9---5----------------------------------------|
D|-/7---7------------/7---7---------------5---5-7/9---5---3h5-3/2-0h2p0------|
A|-------------------------------------/7---7---------------------------3----|
E|---------------------------------------------------------------------------|


************************************

| /   slide up
| \   slide down
| h   hammer-on
| p   pull-off

************************************
Tap to rate this tab
 
# A B C D E F G H I J K L M N O P Q R S T U V W X Y Z