Owl City - The Saltwater Room tab

This is my first tab, but I'm fairly certain that what I have is 99% correct! :)


Capo: 5th fret
Song is tabbed relative to the capo; obviously! lol

INTRO/RIFF:

                                             ~~~\
e|-----------------------------------------|     \
B|--------3-------0----------3-------0-----|      \ 
G|------0---0---0----------0---0---0-------|       \
D|----2-------2----------2-------2---------|        |  
A|--2------------------3-------------------|        |
E|-----------------------------------------|        |
                                                    |
                                                    |
e|-----------------------------------------|        |
B|----------------0------------------------|        |  
G|--------2------------------2-0-----------|        | 
D|------0---0---0----------0-----4-0-------|        |
A|----2-------2----------2-----------2-----|        |
E|--3------------------3-------------------|        |
                                                     \
                                                      \____\  X 5
e|-----------------------------------------|          /    /
B|--------3-------0----------3-------0-----|         /
G|------0---0---0----------0---0---0-------|        |
D|----2-------2----------2-------2---------|        |
A|--2------------------3-------------------|        |
E|-----------------------------------------|        |
                                                    |
                                                    |
e|--------0--------------------------------|        |
B|------0---0---0-3----------3---0---------|        |
G|----0-------0------------0---2---2-0-----|        |
D|--2--------------------2-----------------|       /
A|---------------------3-------------------|      /
E|-----------------------------------------|     /
                                             ~~~/


OUTRO:

                                             ~~~\ 
e|-----------------------------------------|     \
B|-----------------------------------------|      \
G|------0---0-2/4-0--------0---0-2/4-0-----|       |
D|--1/2---2------------1/2---2-------------|       |
A|-----------------------------------------|       |
E|-----------------------------------------|       |
                                                   |
                                                   |
e|-----------------------------------------|       |
B|-----------------------------------------|       |
G|------0------------------0---------------|       |
D|--1/2---2-0---0------1/2---2-0-----------|       |
A|------------2------------------3-2-------|       |
E|-----------------------------------3-----|        \
                                                     \____\  X 2
                                                     /    /
e|-----------------------------------------|        /
B|-----------------------------------------|       | 
G|------0---0-2/4-0--------0---0-2/4-0-----|       |
D|--1/2---2------------1/2---2-------------|       | 
A|-----------------------------------------|       |
E|-----------------------------------------|       |
                                                   |
                                                   |
                                                   |
e|-----------------------------------------|       |
B|-----------------------------------------|       |
G|-----------------------------------------|       |
D|------0---0-2/4-0------0-----------------|       |
A|--1/2---2------------3---3-2-0-2-0-------|      /
E|-----------------------------------3-----|     /
                                             ~~~/

I don't have the chorus in here, only because that would take too long and
I don't want to! I'm sure you guys can figure it out, it's not too
complicated :). But, if you did learn the Chorus, it would be played like
this......

Intro/Riff- 5 times
Chorus- 2 times
Riff- 2 times
Chorus- 4 times
Outro- 3 times
Tap to rate this tab
 
# A B C D E F G H I J K L M N O P Q R S T U V W X Y Z