Owl City - Fireflies tab

-----------------------------------------------------------------------------
			     FIREFLIES - Owl City
-----------------------------------------------------------------------------
Tabbed by: JeremyJerk
Email: flabiodbest@yahoo.com

Tuning: Standard w/ CAPO on 1st Fret

e|-----9--------------------------------------------------------------------|
B|-----------10---------------10---3-----0---0-3---------0-------3-5--------|
G|---9-----9------7---7-9-7-9----------2---2-------0---0---2---2------------|
D|------------------0------------0------------------------------------------|
A|-0-----0------0-----------------------------------------------------------|
E|-----------------------------------3-----------3---3-------3--------------|

e|-----9----------------0---3-2---------------------------------0-----------|
B|-----------10-------3---3-----3-------0-----------0---0-----3-------------|
G|---9-----9------7---------------2---0-----0-2---0-------2-----------------|
D|------------------0-------------------------------------------------------|
A|-0-----0------0-----------------------------------------------------------|
E|----------------------------------3-----3-----3-----3-----3---------------|

**If you don't have a capo, that's fine. It's still applicable without it.**

**It is recommended that you use your fingers so you won't get confused.**

************************************

| /   slide up
| \   slide down
| h   hammer-on
| p   pull-off
| ~   vibrato
| +   harmonic
| x   Mute note
| b   Bend
| pb  Pre-bend
| br  Bend release
| pbr Pre-bend release
| brb Bend release bend

************************************
Tap to rate this tab
 
# A B C D E F G H I J K L M N O P Q R S T U V W X Y Z