Owl City - Hot Air Balloon tab

Hey, this is my favorite song, and I'm pretty sure of all this, however, this is my first tab.

Capo First Fret                            / =slide          : =hammer-on

(Intro and Outro are on piano)

Chorus/Verse
   C  C  C   G G   A  A  A   F F
6- x--x--x---3-3---x--x--x---1-1---|
5- 3--3--3---2-2---0--0--0---3-3---|
4- 2--2--2---0-0---2--2--2---3-3---|
3- 0--0--0---0-0---2--2--2---2-2---|
2- 1--1--1---0-0---1--1--1---1-1---|
1- 0--0--0---3-3---0--0--0---1-1---|

Bridge

6- --------3---------------1-------|
5- 3---------2-----0---------3-----|
4- --2---------0-----2---------3---|
3- ----0---------0-----2---------2-|
2- ------1---------------1---------|
1- --------------------------------|

Solo

6- --------------------------------------------------------------------------|
5- --------------------------------------------------------------------------|
4- --------------------------------------------------------------------------|
3- ------0-----0-----0--------------2--------------------0-----0-----0-------|
2- 1-1-1---1/3---1/3---1---3-3-3--1---1-----------1-1--1---1/3---1/3---1---3-|
1- -------------------------------------0-1--0---0---------------------------|

------------------------------------------------------------------------------|
------------------------------------------------------------------------------|
------------------------------------------------------------------------------|
-------2-------------0:2---0:2---0-----0-----0--------------0-----------------|
3-3--1---3----3--1-------1-----1---1/3---1/3---1---3-3-3--1---1-----------1-1-|
------------0---------------------------------------------------0-1--0---0----|

-----------------------------------------------------------------------------|
-----------------------------------------------------------------------------|
-----------------------------10----------------------------------------------|
--------0---0--------------9-------------------------------------------------|
--1---3---3---1---8-10---8------8--------------------------------------------|
----3------------------8----------8/12-8-------------------------------------|

Order:

Intro 1x
Chorus 2x
Bridge 4x
Verse 4x
Chorus 4x
Bridge 4x
Verse 4x
Chorus 4x
Solo 1x
Chorus 4x
Outro 1x

Have fun! This song takes a while to figure out, but the rhythm is really cool!
Tap to rate this tab
 
# A B C D E F G H I J K L M N O P Q R S T U V W X Y Z