Song name
# A B C D E F G H I J K L M N O P Q R S T U V W X Y Z

Owl City - Honey And The Bee tab

-------------------------------------------------------------------------------
			    HONEY AND THE BEE - Owl City
-------------------------------------------------------------------------------
Tabbed by: Nick Barrs
Email: nickbarrs@ymail.com

Tuning: Standard (EADGBe)

//Listen to song for rhythm.

e|-------0------------------------0------------------------------------------|
B|------------1---------1--------------1---------1---------------------------|
G|-----------------4---------0--------------4---------0----------------------|
D|---------------------------------------------------------------------------|
A|-----3----3----3----3----3----3----3----3----3----3------------------------|
E|---------------------------------------------------------------------------|

e|-------0------------------------0------------------------------------------|
B|------------1---------1--------------1---------1---------------------------|
G|-----------------2---------0--------------2---------0----------------------|
D|-----3----3----3----3----3----3----3----3----3----3------------------------|
A|---------------------------------------------------------------------------|
E|---------------------------------------------------------------------------|
Tap to rate this tab
 
# A B C D E F G H I J K L M N O P Q R S T U V W X Y Z