Song name
# A B C D E F G H I J K L M N O P Q R S T U V W X Y Z

Owl City - Fireflies tab

Here is a guitar solo cover to the synth intro of Fireflies. 


     G            C             F
 e|-------7-----3-----------3-----------1--------------------------------------|
 B|---------------1-1-3-1-3---0-----1-----1-----1---1s3------------------------|
 G|-----0-----0-------------------2---2-----2----------------------------------|
 D|----------------------------------------------------------------------------|
 A|---------------3-3-3-3-3-3--------------------------------------------------|
 E|---3-----3-------------------1-------------1--------------------------------|

     G            C             F
 e|-------7-----3---------1-0-------------1--------------------------------------|
 B|---------------1-1-3-1-----1-------1-----1-----1--1s3-------------------------|
 G|-----0-----0-----------------0---2---2-----2----------------------------------|
 D|------------------------------------------------------------------------------|
 A|---------------3-3-3-3-3-3----------------------------------------------------|
 E|---3-----3---------------------1-------------1--------------------------------|


Compiled with TabPlayer :: http://www.simoneperandini.com/tabplayer/

Tap to rate this tab
 
# A B C D E F G H I J K L M N O P Q R S T U V W X Y Z